Gametabs
Home
Tabs
Random

Pablo Sanchez

Average rating: No ratings

Composer:

Tabber:

Style:

Instrument:

Created: May 24, 2011 at 12:00 AM

            Pablo Sanchez

E|--------------------|---------------------|----------------|-----------------------------|
B|--------------------|---------------------|----------------|-----------------------------|
G|-2--3--2-----2------|------2----3-----L---|-2----3----5----|-3---------------------2--3--|
D|----------5---------|-5-------------------|----------------|------5----------------2--3--|
A|--------------------|---------------------|----------------|-----------------------------|
E|--------------------|---------------------|----------------|-----------------------------|


E|--------------|----------------------------------|-------------------------------|
B|--------------|----------------------------------|-------------------------------|
G|-2--0--2------|----------------------------------|-------------------------------|
D|-2--0--2------|-2----2---2---2-------2---2---2---|-----2---2---2----2-------3----|
A|--------------|-0----0---0---0-------0---0---0---|-----0---0---0----0-------3----|
E|--------------|-0----0---0---0-------0---0---0---|-----0---0---0----0-------1----|


E|-------------------------------------|----------------------------|-------------------------------------|
B|-------------------------------------|----------------------------|-------------------------------------|
G|-------------------------------------|----------------------------|-------------------------------------|
D|-3---3---3-------3---3---3-------3---|-L---5----3----2----2---2---|-2-------2---2---2-------2---2---2---|
A|-3---3---3-------3---3---3-------3---|-L---3----3----0----0---0---|-0-------0---0---0-------0---0---0---|
E|-------------------------------------|---------------0----0---0---|-0-------0---0---0-------0---0---0---|


E|----------------------------------|-------------------------------------|-----0--1--0-----L----L----------------|
B|----------------------------------|-------------------------------------|-----0---------0---0---0-------0---0---|
G|----------------------------------|-------------------------------------|-----1---------1---1---1-------1---1---|
D|-L---2-------3----3---3---3-------|-3---3---3-------3---3---5---5---3---|-----2---------2---2---2-------2---2---|
A|-L---0-------3----3---3---3-------|-3---3---3-------3-------3---3---3---|---------------------------------------|
E|-L---0-------1--------------------|-------------------------------------|---------------------------------------|


E|------------------0----1-------|-----0-------1-------3---1---0-------|-1----1---0--1--0-------------|
B|-0-----------3----0----0---1---|-L---1---1---1-----------------------|-1----0--------------0----0---|
G|-1-----------1----1----0---2---|-L---2---2---2-------2---2---2-------|-2----0---------2----1----1---|
D|-2-----------2----2----2---3---|-L---3---3---3-------3---3---3-------|-3--------------3----2----2---|
A|-------------------------------|-------------------------------------|------------------------------|
E|-------------------------------|-------------------------------------|------------------------------|


E|-----------------------------4---5---4-------|-------------------------------------------|
B|-0---0-----------0-----0---------------------|-0---------0---------1---------1---1---1---|
G|-1---1-----------1-----1---------------------|-1---------1---------2---------2---2---2---|
D|-2---2-----------2-----2-----6-------6-------|-2---------2---------3---------3---3---3---|
A|-----------------------------7-------7-------|-------------------------------------------|
E|---------------------------------------------|-------------------------------------------|


E|-----3---1---0---1---0------------|---------0----0---0---0-------0---|-0---0-------0----0----0----|
B|-----1---1---1-------1----3-------|-1---0---0----0---0---0-------0---|-0---0-------0----0----0----|
G|-----2---2---2-------2----4-------|-2-------1----1---1---1-------1---|-1---1-------1----1----1----|
D|-----3---3---3-------3----5-------|-3-------2----2---2---2-------2---|-2---2-------2----2----2----|
A|----------------------------------|---------2----2---2---2-------2---|-2---2-------2----2----2----|
E|----------------------------------|---------0----0---0---0-------0---|-0---0-------0----0----0----|


E|-1----1---1---1-------1---1---1---|-----1----3----1-------0----|-0---0---0-------0---0---0-------0---|
B|-1----1---1---1-------1---1---1---|-----1----3----1-------0----|-0---0---0-------0---0---0-------0---|
G|-2----2---2---2-------2---2---2---|-----2----4----2-------1----|-1---1---1-------1---1---1-------1---|
D|-3----3---3---3-------3---3---3---|-----3----5----3-------2----|-2---2---2-------2---2---2-------2---|
A|-3----3---3---3-------3---3---3---|-----3----5----3-------2----|-2---2---2-------2---2---2-------2---|
E|-1----1---1---1-------1---1---1---|-----1----3----1-------0----|-0---0---0-------0---0---0-------0---|


E|-L---0----0----1----1---1---|-1-------1---1---1-------1----3---|-L---1-----------0------------|
B|-L---0----0----1----1---1---|-1-------1---1---1-------1----3---|-L---1-----------0------------|
G|-L---1----1----2----2---2---|-2-------2---2---2-------2----4---|-L---2-----------1--------1---|
D|-L---2----2----3----3---3---|-3-------3---3---3-------3----5---|-L---3-----------2----3-------|
A|-L---2----2----3----3---3---|-3-------3---3---3-------3----5---|-L---3-----------2------------|
E|-L---0----0----1----1---1---|-1-------1---1---1-------1----3---|-L---1------------------------|


E|-----------------------------|------------------------------|------------------|
B|---------1---3-----3---1--0--|------------------------------|------------------|
G|-2---4-----------------------|-2----------------------------|------------------|
D|-----------------------------|-----3---2---------2-3-2---0--|-L--2-------------|
A|-----------------------------|------------------------------|------------------|
E|-----------------------------|------------------------------|------------------|


E|----------------------------|
B|----------------------------|
G|----------------------------|
D|----------------------------|
A|----------------------------|
E|----------------------------|




        
Comments

No comments yet