Gametabs
Home
Tabs
Random

Wind

Average rating: 5.000

1 ratings

Composer:

Tabber:

Style:

Instrument:

Created: May 01, 2015 at 12:00 AM

                 E  E  S  S H        E     W                   E  E  S  S Q      Q.      
E||-------------------------|-------------------|------------------<>5------|
B||-------------------------|-------------------|------------------<>5------|
G||-------------------------|-------------------|------------------<>5------|
D||-------------------------|-------------------|---------------------------|
A||-----2--2s-7-------------|-------------------|-----2--2s-7---------------|
E||--0----------0--------L--|--L----------------|--0----------0------L------|


                                                                       NH      
  W                   E  E  S  Q.     S  S S  E     E  E  S  S Q       Q.      
--L----------------|-----------------------------|------------------<>12------|
--L----------------|-----------------------------|------------------<>12------|
--L----------------|-----------------------------|------------------<>12------|
-------------------|--------3s-5------4p-0-------|----------------------------|
-------------------|-----3-----------------2p-0--|-----2--2s-7----------------|
-------------------|--0--------------------------|--0----------0-------L------|


   W                   S S S S S S S S S S S S S S T  T S  
---L----------------|-------------------------------------|
---L----------------|-------------------------------------|
---L----------------|-------------------------------------|
--------------------|------2-----0---------2-----0------0-|
--------------------|----2---------0-2---2---------0h-2---|
--------------------|--0-----2-3-------0-----2-3----------|


  S S S S S S S S S S S S S S T  T S    S S S S S S T  T S S S S S S S T  T S  
-------------------------------------|----------------------------------------|
-------------------------------------|------1-----0------------1-----0--------|
-------------------------------------|-------------------0------------------0-|
------2-----0---------2-----0------0-|----2---0-2---2s-4-----2---0-2---2s-4---|
----2---------0-2---2---------0h-2---|--3------------------3------------------|
--0-----2-3-------0-----2-3----------|----------------------------------------|


  S S S S S S S S S S S S S S T  T S    S S S S S S T  T S S S S S S S S S  
-------------------------------------|-------------------------------------|
-------------------------------------|------1------------------3-----3---0-|
-----------------------------------0-|------------0------0---2---------2---|
------2-----0---------2-----0--------|----2---0-2---2s-4---0-----4-5-------|
----2---------0-2---2---------0h-2---|--3----------------------------------|
--0-----2-3-------0-----2-3----------|-------------------------------------|


  S S S S S S S S S S S S S S T  T S    S S S S S S T  T S S S S S S S S S  
-------------------------------------|-------------------------------------|
-------------------------------------|------1-----0------------3-----3---0-|
-----------------------------------0-|-------------------0---2---------2---|
------2-----0---------2-----0--------|----2---0-2---2s-4---0-----4-5-------|
----2---------0-2---2---------0h-2---|--3----------------------------------|
--0-----2-3-------0-----2-3----------|-------------------------------------|


                                                           NH      
  S S S S S S S S S S S S S S T  T S    E  E  S  S Q       Q.      
-------------------------------------|------------------<>12------|
-------------------------------------|------------------<>12------|
-------------------------------------|------------------<>12------|
------2-----0---------2-----0------0-|----------------------------|
----2---------0-2---2---------0h-2---|-----2--2s-7----------------|
--0-----2-3-------0-----2-3----------|--0----------0-------L------|


  W                  
--L----------------||
--L----------------||
--L----------------||
-------------------||
-------------------||
-------------------||
        
Comments

No comments yet