Gametabs
Home
Tabs
Random

Silver Sky ~Soundtrack Version~

Average rating: 5.000

5 ratings

Composer:

Tabber:

Style:

Instrument:

Created: March 03, 2014 at 12:00 AM

            Title: Silver Sky ~Soundtrack Version~
SubTitle: Arpeggio of Blue Steel -Ars Nova-
Artist: Masato Kōda
Tabber: Mitch Jackson
Tempo = 60
T/S = 4/4


     ♪♫•*¨*•.¸¸ CAPO 3 ¸¸.•*¨*•♫♪ 


     
     E  E  E  E  E  E  E  E       E  E  E  E  E  E  E  E       E  E  E  E  E  E  E  E       E  E  E  E  E  E  E  E     
E |--9--0-----7-----0--9-------|-----7-----0-----4--5--7----|--9--0-----7-----0--9-------|-----7-----0-----4--5--7----|
B |-----9--7-----7--------9----|--7--5--7-----7-------------|-----9--7-----7--------9----|--7--5--7-----7-------------|
F#|--0-----5-------------------|--0-----5-------------------|--------5-------------------|--------5-------------------|
D |----------------------------|----------------------------|--0-------------------------|--0-------------------------|
A |----------------------------|----------------------------|----------------------------|----------------------------|
D |----------------------------|----------------------------|----------------------------|----------------------------|

                                                          

     E  E  E  E  E  E  E  E       E  E  E  E  E  E  E  E       E  E  E  E  E  E  E  E       E  E  E  E  E  E  E  E     
  |--9-----------------9--4----|-----------------4--5--7----|--9-----------2--0--9-------|----------------------------|
  |--------------7--5----------|--7-----------7-------------|-----------------------9----|--7--------------------0----|
  |--------5-------------------|--------5-------------------|--------0-------------------|--------0-----0--2--3-------|
  |-----------7----------------|-----------7----------------|-----------2----------------|-----------2----------------|
  |-----4----------------------|-----4----------------------|-----0----------------------|-----0----------------------|
  |--4-------------------------|--4-------------------------|--0-------------------------|--0-------------------------|

                                                          

     E  E  E  S Q     S E  S S      E  E  E  E  E  E  E  S S      E  E  E  S Q     S E  S S      E  E  E  Q.       E  E     
  |--------4----4-----L-4----4---|--------------5--4--0----0---|--------0----0-----L-0----0---|--------------------0-------|
  |-----------7------------7-----|-----------------------2-----|-----------2------------2-----|-----------------------7----|
  |--7-----5---------------------|--------5--------------------|--------0---------------------|--------0-------------------|
  |-----------7------------------|-----------7-----------------|-----------2------------------|-----------2----------------|
  |-----4------------------------|-----4-----------------------|-----0------------------------|-----0----------------------|
  |--4---------------------------|--4--------------------------|--0---------------------------|--0-------------------------|

                                                     
                                                                                                ^
     E  E  E  S Q     S E  S S      E  E  E  E  E  E  E  S S      E  E  E  S H           S      E  E  E  E  E  E  E  E
  |--------4----4-----L-4----4---|--------------5--4--0----0---|--------0----0-----------L---|-----------2--4--------4----|
  |-----------7------------7-----|-----------------------2-----|-----------2-----------------|--2-----2-----------5-------|
  |--7-----5---------------------|--------5--------------------|--------0--------------------|--0--3-----------5----------|
  |-----------7------------------|-----------7-----------------|-----------2-----------------|--0-----------2-------------|
  |-----4------------------------|-----4-----------------------|-----0-----------------------|----------------------------|
  |--4---------------------------|--4--------------------------|--0--------------------------|----------------------------|



     E  E  E  E  E  Q     S S      E  E  E  Q.       E  E       E  E  E  E  E  E  E  E       E  E  E  E  H              
  |--5--------------9-----7-5---|--4--------4--------0--2----|--4--------4--5--4----------|----------------------------|
  |--2-----2--2--3--------------|--5-----5-------------------|--------5-----------5-------|--0-----0--2--L-------------|
  |-----3-----------------------|-----5----------------------|-----5-----------------5----|-----3-----3--L-------------|
  |--0--------------------------|--0-------------------------|----------------------------|--2-------------------------|
  |-----------------------------|----------------------------|--4-------------------------|----------------------------|
  |-----------------------------|----------------------------|----------------------------|--4--------2--L-------------|

                                                          
                                                                                            ^
     E  E  E  E  E  E  E  E       E  E  E  Q.       E  E       E  E  E  Q     E  E  E       H.                E  E     
  |--------------2--0----------|----------------------------|--------------------2--4----|-----------------------5----|
  |--------0--2--------3--2----|--2-----3--------------0----|--0--------0-----2----------|--6-----------------7-------|
  |-----1----------------------|-----3-----3--------3-------|--------2-------------------|--7-------------------------|
  |----------------------------|--0-----------------4-------|-----4----------------------|--4-------------------------|
  |--0-------------------------|----------------------------|--4-------------------------|--4-------------------------|
  |----------------------------|----------------------------|----------------------------|----------------------------|


                                                         
     E  E  E  S Q     S E  S S      E  E  E  Q     E  E  E       E  E  E  S Q     S E  S S      E  E  E  E  E  E  E  E
  |--7-----7--5-7-----L-7--5-7---|-----------7-----9--7--5----|--4-----4--2-4-----L-4--2-4---|-----------4--5--4----------|
  |--------5--7------------------|--------9-------------------|-----2------------------------|--------5-----------5-------|
  |-----3------------------------|-----7----------------------|--0---------------------------|-----5-----------------7----|
  |--0---------------------------|----------------------------|------------------------------|----------------------------|
  |------------------------------|--8-------------------------|------------------------------|--4-------------------------|
  |------------------------------|----------------------------|------------------------------|----------------------------|


                   P.H
     E  E  E  Q     Q     S  S      E  E  E  E  E  E  Q          E  E  E  Q     E  E  E       E  E  E  Q.       E  E
  |-----------2----<0>----10-9---|--7-----------------7-------|--7----------------(7)(5)---|--9--------------------5----|
  |--3-----5---------------------|--------9--10-9--10---------|--------0--2----(5)---------|--------0--2--------7-------|
  |-----3------------------------|-----8----------------------|----------------------------|----------------------------|
  |------------------------------|----------------------------|-----2----------------------|-----2----------------------|
  |--2---------------------------|--7-------------------------|--0-------------------------|--0-------------------------|
  |------------------------------|----------------------------|----------------------------|----------------------------|



     E  E  E  S Q     S E  S S      E  E  E  Q     E  E  E       E  E  E  S E.  E  E  E       E  E  E  H           E
  |--7-----7--5-7-----L-7--5-7---|--------0--------9--7--5----|--4-----4--5-7---10-9--4----|-----------5----------------|
  |--------5--7------------------|-----------6----------------|-----0----------------------|--7--6--7--4-----------2----|
  |-----3------------------------|-----3----------------------|----------------------------|-----3--6-------------------|
  |--0---------------------------|--0-------------------------|----------------------------|----------------------------|
  |------------------------------|----------------------------|--4--------6-8--------------|--3-------------------------|
  |------------------------------|----------------------------|----------------------------|----------------------------|



     E  E  E  Q     E  E  E       E  E  E  Q     Q     E       E  E  E  Q     E  E  E       E  E  E  E  H
  |--------------------2--5----|--7-----5--4-----------4----|--4-----------------4-------|----------------------------|
  |--2-----3--------3----------|-----0-----------2----------|-----------------------7----|--7-------------------------|
  |-----------3----------------|----------------------------|--5--------5-----7----------|----------------------------|
  |-----4----------------------|--------1--3----------------|--------6-------------------|--7-----6--7--L-------------|
  |--2-------------------------|--4-------------------------|-----4----------------------|-----4----------------------|
  |----------------------------|----------------------------|--4-------------------------|--4-------------------------|


                                                                                          |--FIRST ENDING------------>
      E  E  E  E  Q     Q          E  E  E  E  E  E  E  E       E  E  E  E  Q     Q          E  E  E  E  E  E  E  E
  ||--9-----7-----5-----9-------|-----------------4--5--7----|--9-----7-----5-----9-------|--2-----------2--4--5--7---||
  ||----------------------------|--5-----------7-------------|----------------------------|---------------------------||
  ||o-------5-------------------|--------5-------------------|--------0-------------------|--------0-----------------o||
  ||o----------7----------------|-----------7----------------|-----------2----------------|-----------2--------------o||
  ||-----4----------------------|-----4----------------------|-----0----------------------|-----0---------------------||
  ||--4-------------------------|--4-------------------------|--0-------------------------|--0------------------------||


  |--SECOND ENDING------------>
     E  E  E  E  E  E  E  E       W
  |--2-----------2--4--5--7----|--L--------------------------||
  |----------------------------|-----------------------------||
  |--------0-------------------|--L--------------------------||
  |-----------2----------------|--L--------------------------||
  |-----0----------------------|--L--------------------------||
  |--0-------------------------|--L--------------------------||


        
Comments

@NostalgiaTunez (March 04, 2014 at 5:52 AM)

I haven't watched the anime, but this is a really nice piece. Thanks for sharing!


@Choogly (March 08, 2014 at 5:05 AM)

Incredible. Your tabs fall into a category of their own, I think. They always have a distinctly mesmerizing timbre.


@scarecrowlol (March 08, 2014 at 7:59 PM)

Thanks Choogly! probably half the reason my tabs are the way they are is because of the songs i choose to arrange :3