Gametabs
Home
Tabs
Random

Yuuyami Kogi

Average rating: 5.000

4 ratings

Composer:

Tabber:

Style:

Instrument:

Created: June 24, 2017 at 12:00 AM

                                                  Yuuyami kogi
                                        夕闇漕ぎ
                          ~ from anime "ARIA The ORIGINATION" ~

Music by Jyouji Sawada (沢田譲二) / Choro Club


4/4

Q=70

 (Standard Tuning, EADGBE)

      E  E  Q    Q    Q       E   E   Q     Q     Q       E  E  E  E  Q    Q       E  E  E  E  H         
E||---------9--------------|---------11-----9----------|--6-----7---------------|-----------------------|
B||--11---------------7----|--9------------------12----|--------------7---------|--------------9--------|
G||--------------8---------|----------8----------------|-----------8-------8----|--6--------8-----------|
D||------8-----------------|---------------11----------|-----8------------------|--------6--------------|
A||------------------------|-----11--------------------|------------------------|-----7-----------------|
E||---7---------------7----|--0------------------------|--7----------------7----|--0--------------------|


   E  E  Q    Q    Q       E   E   Q     Q     Q       E  E  E  E  Q    Q       E  E  E   E  E  E  Q     
---------9--------------|---------11-----9----------|--6-----7---------------|--------------------------||
--11---------------7----|--9------------------12----|--------------7---------|---------------9----------||
--------------8---------|----------8----------------|-----------8-------8----|--6-----6h--8--------8----||
------8-----------------|---------------11----------|-----8------------------|-----6------------6-------||
------------------------|-----11--------------------|------------------------|--7-----------------------||
---7---------------7----|--0------------------------|--7----------------7----|--------------------------||


  E  E  E  E  Q    E  E     E  E  E  E  Q    E  E     E  E  E  E  E  E  Q       E  E  E  S S Q    Q     
--3-----2-------------5--|--4-----4-------------0--|--2-----------2----------|--7--------6-7-----------|
-----------0--2----3-----|-----------2--4----------|--------0--3--------3----|---------------7----6----|
--------0----------0-----|--------2----------------|-----------------4-------|-----------4-------------|
-----2--------2----------|-----4--------4----------|-----4-------------------|--------4------4---------|
-------------------------|-------------------4-----|-------------------------|-----6--------------6----|
--0----------------------|--2----------------------|--3----------------------|--4----------------------|


  E  E  E  S S E  E  Q       E  E  Q    Q    Q        E  E   E  E  E  E  E  E   
--5--------4-5------------|--------3---------6----|---------10-----------------|
---------------4-----2----|-------------6---------|--10------------------------|
--------2------2----------|--5----------3---------|----------------5-----7-----|
--------2-----------------|-----5-----------------|------0------0-----5-----5--|
-----4------------0-------|-----------------------|----------------------------|
--2-----------------------|--4--------------------|---6------------6-----------|


  E  E  E  E  E  E  Q       E  E  E   E  E  E  Q       E  E  E  E  E  E  E  E   
-------------------------|--2------------5-----5----|--------------1--3--4--8--|
--------------7----------|--------0h--3-----4-------|-----1--3--4--------------|
--8--------8--------8----|--------------------------|--------------------------|
--------6--------6-------|-----4---------3----------|--------------------0-----|
-----7-------------------|--------------------------|--1-----------------------|
--0----------------------|--3-----------------------|--------------------------|


                                       |--3--|                    |--3--|              
   E   E   E  E  E  E  E  E      Q     E  E  E  Q    Q       Q    E  E  E  Q    E  E   
--10--11--10-----------------|--10--------9----------5----|--6-------4-----1----2--4--|
---8----------8--6--8--------|---7-----------7------------|-------------4--2----------|
---8-------------7-----5--7--|---0--------------9---------|-------3-------------------|
-----------------8-----0-----|----------------------------|---------------------------|
-----------------6-----------|----------------------------|--2-------------2----------|
-----------------------------|----------------------------|---------------------------|


                                  |--3--|                    |--3--|              
  Q    E   E  Q    Q        Q     E  E  E  Q    Q       Q    E  E  E  Q    E  E   
--7----5--10------------|--10--------9-----0----5----|--6-------4-----1----2--4--|
--5-----------7----8----|---7-----------7------------|-------------4--2----4-----|
--5---------------------|---0------------------------|-------3-------------------|
------------------------|----------------------------|---------------------------|
------------------------|----------------------------|--2-------------2----------|
--------------8---------|------------------3---------|---------------------------|


  E  E  E  E  E   E  E  E     E  E  E  E  E  E  E  E     E  E  E  E  Q    Q       E  E  E  E  H         
--7--------------10--0-----|--------------0-----------|------------------------|--------------4--------||
--------0-----0---------8--|--7--------0-----------0--|--4-----2--4------------|-----------4-----------||
-----0-----0---------------|--------6-----------6-----|--1-----------1----4----|--3-----3--------------||
---------------------------|-----6-----------6--------|-----1--------1---------|-----3-----------------||
--3------------------------|--0-----------------------|------------------------|-----------------------||
---------------------------|--------------------------|--0---------------------|--2--------------------||


   E  E  Q    Q    Q       E   E   Q     Q     Q       E  E  E  E  Q    Q       E  E  E  E  H         
---------9--------------|---------11-----9----------|--6-----7---------------|-----------------------|
--11---------------7----|--9------------------12----|--------------7---------|--------------9--------|
--------------8---------|----------8----------------|-----------8-------8----|--6--------8-----------|
------8-----------------|---------------11----------|-----8------------------|--------6--------------|
------------------------|-----11--------------------|------------------------|-----7-----------------|
---7---------------7----|--0------------------------|--7----------------7----|--0--------------------|


   E  E  Q    Q    Q       E   E   Q     Q     Q       E  E  E  E  Q    Q       E  E  E   E  E  E  Q     
---------9--------------|---------11-----9----------|--6-----7---------------|--------------------------|
--11---------------7----|--9------------------12----|--------------7---------|---------------9----------|
--------------8---------|----------8----------------|-----------8-------8----|--6-----6h--8--------8----|
------8-----------------|---------------11----------|-----8------------------|-----6------------6-------|
------------------------|-----11--------------------|------------------------|--7-----------------------|
---7---------------7----|--0------------------------|--7----------------7----|--------------------------|


  E  E  E  E  Q    E  E     E  E  E  E  Q    E  E     E  E  E  E  E  E  Q       E  E  E  E  E  E  Q     
--3-----2-------------5--|--4-----4-------------0--|--2-----------2----------|--6----------------------|
-----------0--2----3-----|-----------2--4----------|--------0--3--------3----|-----------2--4-----2----|
--------0----------0-----|--------2----------------|-----------------4-------|--------3--------3-------|
-----2--------2----------|-----4--------4----------|-----4-------------------|-----4-------------------|
-------------------------|-------------------4-----|-------------------------|--2----------------------|
--0----------------------|--2----------------------|--3----------------------|-------------------------|


  E  E  E  E  E  E  Q       E  E  E  E  E  E  Q       E  E  E  E  E  E  Q       S S S S E  E  H          
--------------2----------|--------------1----------|--------------2----------|----------0--------------||
--4--------4--------0----|--------2-----------2----|--4--------4--------0----|--------0----------------||
--------1--------1-------|--3--------------3-------|--------1--------1-------|--6-------------6--------||
-----2-------------------|-----1-----1-------------|-----2-------------------|------4------4-----------||
-------------------------|--2----------------------|-------------------------|----5--------------------||
--0----------------------|-------------------------|--0----------------------|--5----------------------||  fine...


        
Comments

@thedstring (July 09, 2017 at 5:27 PM)

Here's a video of me playing this for the first time, you'll get a feel for how difficult the song is as well as my pointers on how to play it:

https://youtu.be/vh3KtzxBAQI