Gametabs
Home
Tabs
Random

Shiki ~Soshite Boku wa Umi ni Kaeru~

Average rating: 5.000

1 ratings

Composer:

Tabber:

Style:

Instrument:

Created: November 06, 2013 at 12:00 AM

                                     Shiki ~sosite Boku wa Umi ni  kaeru~
                               (四季〜そして僕は海に還る〜)
                          ~ from anime "ARIA The ORIGINATION" ~


Music by Takeshi Senoo (妹尾武)
Tabber by to*morning

Standard Tuning

  Q=60
 4/4
|-------------1-4-|---------1----------|------------1-4-|-------|
|--------2-4------|---4--2---------1---|-------2-4------|-4-2-2-|
|--3-1-3---3------|--^3--------1-------|-3-1-3---3------|-3---1-|
|-^3-------4------|--^4----------------|-3-------4------|-4---3-|
|-^4--------------|---------4----------|-4--------------|-------|
|-----------------|--------------------|----------------|-------|




|-----------------1-4-|------------1----------|----------------1--4-|-----------------------||
|---------2-4---------|-4------2---1------1---|-------2-4-----------|-4------2---2----------||
|-3--1--3---3---------|------------1--1-------|-3-1-3---3-----------|--------3---3------3---||
|----1---------4------|----1---4--------------|-3----------3--------|----4-------3--3-------||
|-2---------1---------|-0---------------------|---------------------|------------4----------||
|---------------------|------------4----------|-3-------2-----------|-4---------------------||




|-------------4---|-----------------|-------------4--|---4------||
|-----6---4-------|-----6---4---6---|-----6---4------|-4---6----||
|---5---5---5---5-|---3---3---3---3-|---5---5---5----|-3---5----||
|-----------------|-----------------|----------------|----------||
|-4---------------|-4---------------|-4--------------|-4--------||
|-----------------|-----------------|----------------|----------||




|--------------------1--4-|------------1----------|----------------1--4-|--------------------|
|-----------2-4-----------|-4------2---1------1---|-------2-4-----------|-4------2----2------|
|-3--1---3----3-----------|--------3---1--1-------|-3-1-3---3-----------|--------3----3---3--|
|----3--------------------|----4-------3----------|-3-------------------|----4------4-3-3----|
|----------------4--------|------------4----------|------------4--------|-------------4------|
|-4-----------2-----------|-4---------------------|-3-------2-----------|-4------------------|




|---------------1-4-|-------------1----------|----------------1--4-|------------------------|
|-------2-4---------|-4------2----1------1---|-------2-4-----------|-4------2---2-----------|
|-3-1-3---0--0------|-------------1--1-------|-3-1-3---3-----------|--------3---1------1----|
|-6-6---------------|----1---4--4------------|-3----------3--------|----4-------3--3------3-|
|---4-----1---------|-0----------------------|---------------------|------------------------|
|-7-----------------|-------------4----------|-3-------2-----------|-4----------4-----------|




|------------6--||---4-----------1---|-----1------------|--------------4-------|
|-2----6--------||-4---6-------4-1---|-2-4-1------1-----|--------6---4---6-----|
|------4--4-----||-6---5---------1-3-|-3---1--1---------|----4-------6---5-----|
|---------------||-4---6--6------3---|-1----------------|------------4---6--6--|
|------4--------||-------------------|------------------|-4--------------------|
|---------------||-6---4-----2---1---|-----4------------|------------6---4-----|


|-----------------------|---------------|---------4----||
|---2--------------3--1-|---------4--2--|--------------||
|-3-3-1--1-----0--------|-------6-3--2--|-------6------||
|-4---3-----------------|-8---6---5--5--|-----4--------||
|---4-------0-----------|---4--------0--|---5----------||
|-2---1-----------------|-6-------6-----|-4------------||


|--------------------1--4-|----------1----------|----------------1--4-|----------------||
|-----------2-4-----------|-4----2---1------1---|-------2-4-----------|-4---2---2------||
|-3--1---3----3-----------|------3---1--1-------|-3-1-3---3-----------|-----3---1---1--||
|----3--------------------|---4------3----------|-3-------------------|---4---4-3-3----||
|----------------4--------|----------4----------|------------4--------|---------4------||
|-4-----------2-----------|-4-------------------|-3-------2-----------|-4--------------||




                                                                       \-2/4
|-----------------1-4-|------------1----------|----------------1--4---||----------------||
|---------2-4---------|-4------2---1------1---|-------2-4-------------||-4--------------||
|-3--1--3---3---------|------------1--1-------|-3-1-3---3-------------||--------6-------||
|----1---------4------|----1---4--------------|-3----------3----------||----4---6--4----||
|-2---------1---------|-0---------------------|-----------------------||----------------||
|---------------------|------------4----------|-3-------2-------------||-4--------------||



\-4/4
|-----------------|-----------------|-----------------|------------------|
|-----------------|-----------------|-----------------|------------------|
|-6-------6-------|---------6-------|---------6-------|---------6--------|
|-4---4-------4---|-----4-------4---|-----4-------4---|-----4-------4----|
|-7-7---7---7---7-|---7---7---7---7-|---7---7---7---7-|---7---7---7---7--|
|-5---------------|-5---------------|-5---------------|-5----------------|




|-4----||
|-2----||
|-4----||
|------||
|-4----||
|------||fine...


        
Comments

@alec613 (November 07, 2013 at 2:22 AM)

Been waiting for some new Aria stuff that hasn't been done since forever.

Already got you bookmarked because you seem to do series whose OST I listen to frequently


@thedstring (November 07, 2013 at 5:09 AM)

I really like this song =)

I wonder if it could benefit from a capo fret 1 though...


@Shin (March 12, 2014 at 8:47 PM)

I think there's a slight mistake on the capo 1 version. From the 9th measure,where it goes

|-------------3---|-----------------|-------------3--|---3------||
|-----6---3-------|-----6---3---6---|-----6---3------|-3---5----||
|---5---5---5---5-|---2---2---2---2-|---5---5---5----|-2---4----||
|-----------------|-----------------|----------------|----------||
|-3---------------|-3---------------|-3--------------|-3--------||
|-----------------|-----------------|----------------|----------||
</Pre>

I think this sounds better.

|-------------3---|-----------------|-------------3--|---3------|| |-----5---3-------|-----5---3---5---|-----5---3------|-3---5----|| |---4---4---4---4-|---2---2---2---2-|---4---4---4----|-2---4----|| |-----------------|-----------------|----------------|----------|| |-3---------------|-3---------------|-3--------------|-3--------|| |-----------------|-----------------|----------------|----------||

And at the beginning of the 17th measure it goes

|---------------0s3-|
|---------3---------|
|-0-0---5-0--0------|
|-6---6-------------|
|---3-----0---------|
|-6-----------------|

I think it should be something like

|---------------0s3-|
|---------3---------|
|---0---5-0--0------|
|-7---7-------------|
|---3-----0---------|
|-7-----------------|

Also at measure 25, I think it sounds a bit off. Instead of

|-----------------------|---------------|---------3----||
|---1--------------2--0-|---------3--1--|--------------||
|-2-2-0--0-----0--------|-------5-2--1--|-------6------||
|-3---2-----------------|-6---5---4--4--|-----3--------||
|---3-------0-----------|---3--------0--|---5----------||
|-1---0-----------------|-5-------5-----|-3------------||

I think it should be

|-----------------------|---------------|---------3----||
|---1-------------------|---------3--1--|--------------||
|-2-2-0--0-----0---2--0-|-------5-2--1--|-------5------||
|-3---2-----------------|-7---5---4--4--|-----3--------||
|---3-------0-----------|---3--------0--|---5----------||
|-1---0-----------------|-5-------5-----|-3------------||

The outro should also be

|-----------------|-----------------|-----------------|------------------|
|-----------------|-----------------|-----------------|------------------|
|-5-------5-------|---------5-------|---------5-------|---------5--------|
|-3---3-------3---|-----3-------3---|-----3-------3---|-----3-------3----|
|-6-6---6---6---6-|---6---6---6---6-|---6---6---6---6-|---6---6---6---6--|
|-4---------------|-4---------------|-4---------------|-4----------------|

Might be worth correcting the capo 1 version a bit. It's a few errors that were probably made transposing it to 1st capo, but I uploaded a fixed version here if it's any help.

http://www.gametabs.net/files/user/Shin/Shiki%20Fixed.txt