Gametabs
Home
Tabs
Random

Tooi Kobune

Average rating: 5.000

2 ratings

Composer:

Tabber:

Style:

Instrument:

Created: November 19, 2015 at 12:00 AM

                                                 Tooi Kobune
                                     (遠い小舟)
                           ~ from anime "ARIA The NATURAL" ~

Music by Shigeharu Sasago (笹子重治) / Choro Club
arranged by to*morning


6th = F (E B G D A F)

Lento (q = 64)

      H           E  E  Q       E  E  E  E     H           
E||------------|-------------|--------------|------------||
B||------------|--0----------|--2-----------|--2---------||
G||*--2--------|--2-----2----|--4-----4-----|-----------*||
D||*--0--------|-----0-------|-----2-----2--|-----------*||
A||------------|-------------|--0-----------|------------||
F||---0--------|--2----------|--------------|------------||


  E  E  Q       E  E  Q       E  E  E  E     H         
--5----------|--7----------|--0-----------|-----------|
-------------|--0----------|--2-----------|--2--------|
--------2----|--0----------|--4-----4-----|-----------|
-----0-------|--------7----|-----2-----2--|-----------|
-------------|-----7-------|--0-----------|-----------|
--0----------|-------------|--------------|-----------|


  E  E  E  E     E  E  Q       E  E  E  E     H         
--------------|-------------|--------------|-----------||
--1-----------|--0----------|--------2-----|--2--------||
--2--------2--|--------2----|-----4-----4--|-----------||
--------3-----|-----0-------|--2-----------|-----------||
-----3--------|-------------|--0-----------|-----------||
--0-----------|--2----------|--------------|-----------||


    E  E  E  E     Q    Q       E  E  E  E     E  E  Q     
|---------------|--0----5----|--------------|-------------|
|---2-----3-----|--2---------|--0-----2-----|--3----------|
|*--------4-----|------------|--------2-----|--4-----2----|
|*-----2-----2--|------------|-----0-----0--|-----0-------|
|---0-----------|------------|--------------|-------------|
|---------------|------------|--2-----------|-------------|


1.____________

  E  E  E  E     Q    Q       E  E  Q        E   E  Q       
--------------|--0---------|-------------|----------------||
--2-----3-----|--2---------|--1----------|---0------------||
--------4-----|-------2----|-------------|--(0)-----2----*||
-----2-----2--|------------|--0-----3----|-------0-------*||
--0-----------|------------|-----3-------|----------------||
--------------|------------|--0----------|---2------------||

2.____________

  E  E  E  E     E  E  Q       E  E  E  E     H         
--------------|--0----------|-----------2--|-----------||
--2-----3-----|--2----------|--2-----2-----|-----------||
--------2-----|--2----------|-----2--------|-----------||
-----2-----2--|-----2--4----|--------------|--4--------||
--------------|--------4----|--2-----------|-----------||
--1-----------|-------------|--------------|-----------||


  E  E  E  E     E  E  E  E     E  E  E  E     Q    Q     
--------------|--------0-----|--------------|------------|
--0-----1-----|--3--------0--|--------------|--0---------|
-----0-----0--|-----0--------|--0-----2-----|-------2----|
--------------|--------------|-----------0--|------------|
--3-----------|--------------|-----3--------|------------|
--------------|--------------|--0-----------|------------|


  E  E  E  E     E  E  Q       E  E  E  E     E  E  Q     
--------------|--------0----|--------------|-------------|
--0-----1-----|--3----------|--------------|--1----------|
-----0-----0--|-----0-------|--2-----------|--2----------|
--------------|-------------|--------0-----|--------0----|
--3-----------|-------------|-----3-----3--|-----3-------|
--------------|-------------|--0-----------|-------------|


  E  E  E  E     E  E  E  E     E  E  E  E     E  E  Q     
--0-----------|--0-----------|--------------|--0----------|
--------4-----|--------4-----|--------3-----|-------------|
-----------4--|-----------4--|-----------4--|--------2----|
-----2--------|-----2--------|-----2--------|-----2-------|
--4-----------|--------------|--3-----------|-------------|
--------------|--------------|--------------|-------------|


  E  E  E  E     E  E  Q       E  E  E  E     H         
--0-----------|-------------|--0-----------|-----------|
--------------|--------1----|--------------|--3--------|
-----------2--|-----2-------|-----------0--|-----------|
--------2-----|--0----------|--2-----4-----|-----------|
-----3--------|-------------|-----2--------|-----------|
--0-----------|-------------|--------------|-----------|


  E  E  E  E     E  E  E  E     Q       H         
--------------|--------------|-------|-------------||
--2-----------|--2-----------|--2----|--2<14>------||
--------4-----|--------4-----|--4----|-------------||
-----2-----2--|-----2-----2--|--2----|-------------||
--0-----------|--------------|--0----|-------------||
--------------|--------------|-------|-------------||


    E  E  E  E     Q    Q       E  E  E  E     E  E  Q     
|---------------|--0----5----|--------------|-------------|
|---2-----3-----|--2---------|--0-----2-----|--3----------|
|*--------4-----|------------|--------2-----|--4-----2----|
|*-----2-----2--|------------|-----0-----0--|-----0-------|
|---0-----------|------------|--------------|-------------|
|---------------|------------|--2-----------|-------------|


1.____________

  E  E  E  E     Q    Q       E  E  Q       E  E  Q       
--------------|--0---------|-------------|--------------||
--2-----3-----|--2---------|--1----------|--0-----------||
--------4-----|-------2----|-------------|--0-----2----*||
-----2-----2--|------------|--0-----3----|-----0-------*||
--0-----------|------------|-----3-------|--------------||
--------------|------------|--0----------|--2-----------||

2.____________

  E  E  E  E     E  E  Q       E  E  E  E     E  E  E  E   
--------------|--0-----2----|-----------2--|--------------||
--2-----3-----|--2-----2----|--2-----2-----|--------------||
--------2-----|--2-----2----|-----2--------|--------------||
-----2-----2--|-----2-------|--------------|--4-----4--3--||
--------------|-------------|--2-----------|-----2--------||
--1-----------|-------------|--------------|--------------||


  E  E  E  E     E  E  Q       E  E  E  E     Q    Q     
--------------|--------0----|--------------|--0----5----|
--0-----2-----|--3----------|--2-----3-----|------------|
-----------0--|-----0-------|-----------0--|------------|
--2-----------|-------------|-----2--------|------------|
-----2--------|-------------|--0-----------|------------|
--------------|-------------|--------------|------------|


  E  E  E  E     E  E  Q       E  E  E  E     Q    Q     
--2-----3-----|--5-----7----|--------------|-------2----|
-----------0--|-----5-------|--0-----2-----|--3---------|
-----2--------|--6----------|--------2-----|--0---------|
--0-----------|-------------|-----0-----0--|------------|
--------------|-------------|--------------|------------|
--------------|-------------|--2-----------|------------|


  H           H           E  E  E  E     H           E  E  Q     
--7--------|--6--------|--6-----------|-----------|--5----------|
--4--------|--5--------|--------------|-----------|--------2----|
--4--------|-----------|-----------6--|-----------|-----2-------|
-----------|--4--------|--------8-----|--6--------|--4----------|
--4--------|-----------|-----6--------|-----------|-------------|
-----------|-----------|--6-----------|-----------|-------------|


  E  E  Q         E  E  E  E     E  E  Q       E  E  E  E   
--4----------|--2g4-----------|-------------|--0-----------|
--------3----|----------2-----|--------2----|--------3-----|
-----4-------|----------1-----|--2----------|--------2-----|
--2----------|-------2-----2--|-----4-------|--------0-----|
-------------|----0-----------|--5----------|-----3-----3--|
-------------|----------------|-------------|--0-----------|


  E  E  E  E     E  E  E  E     Q       E  E  E  E   
--------------|--0-----------|-------||--------------|
--------0-----|--------------|--2----||--------------|
--------2-----|--------4-----|-------||--2-----------|
-----0-----0--|-----2-----2--|-------||--------0-----|
--------------|--0-----------|-------||-----3-----3--|
--2-----------|--------------|-------||--0-----------|


  E  E  E  E     E  E  E  E     Q       E  E  E  E   
--------------|--------------|-------|--------------|
--0-----------|--2-----------|--2----|--1-----------|
--------2-----|--4-----4-----|-------|--------2-----|
-----0-----0--|-----2-----2--|-------|--------3-----|
--------------|--0-----------|-------|-----3-----3--|
--2-----------|--------------|-------|--0-----------|


  E  E  E  E     E  E  E  E     E  E  E  E     E  E  E  E   
--------------|--------------|--------------|--------------|
--0-----------|--------2-----|--2--------2--|--1-----------|
--------2-----|-----4--------|--------4-----|--2-----------|
-----0-----0--|--2--------2--|-----2--------|--------3-----|
--------------|--0-----------|--------------|-----3-----3--|
--2-----------|--------------|--------------|--0-----------|


rit.......(*                         (*      

  E  E  E  E     E  E  E  E     E  E  Q      
--------------|--------------|--0----------||
--0-----------|--------------|-------------||
-----------0--|--2--------2--|--------2----||
--2-----4-----|--------2-----|-----2-------||
-----2--------|-----4--------|-------------||
--------------|--1-----------|-------------|| fine.


        
Comments

No comments yet