Gametabs
Home
Tabs
Random

Trucy's Theme

Average rating: 4.000

1 ratings

Composer:

Tabber:

Style:

Instrument:

Created: July 15, 2011 at 12:00 AM

            Child of Magic ~ Trucy's Theme
Apollo Justice - Ace Attorney
Composer: Toshihiko Horiyama
Tabbed by: victormon

Not very 'dense'. I tabbed it a while ago and recently found it.

E|----------------14-----------------------------------
b|-----14--15~-------14-------12--14-14-15-12----------
g|--14------------------14~----------------------------
d|-----------------------------------------------------
a|-----------------------------------------------------
e|-----------------------------------------------------

E|----------------15-----------------------------------
b|-----15--17~-------16-------14--15-15-17-14----------
g|--16------------------16~----------------------------
d|-----------------------------------------------------
a|-----------------------------------------------------
e|-----------------------------------------------------

E|-----------------------------------------------------
b|----14-15---17--19-----17p15h17---19-----------------
g|-14-----------------------------------16~------------
d|-----------------------------------------------------
a|-----------------------------------------------------
e|-----------------------------------------------------

E|-----------------------------------------------------
b|----15--17---19---17--19-20----22-20-19---15-14~-----
g|-16--------------------------------------------------
d|-----------------------------------------------------
a|-----------------------------------------------------
e|-----------------------------------------------------

E|----------------14-----------------------------------
b|-----14--15~-------14-------12--14-14-15-12----------
g|--14------------------14~----------------------------
d|-----------------------------------------------------
a|-----------------------------------------------------
e|-----------------------------------------------------

E|---------14~----15-14----------17-15-14--------------
b|--15-17--------------------15-----------17-15-14--15-
g|-----------------------16----------------------------
d|-----------------------------------------------------
a|-----------------------------------------------------
e|-----------------------------------------------------
        
Comments

No comments yet