Gametabs
Home
Tabs
Random

Trucy's Theme

Average rating: No ratings

Composer:

Tabber:

Style:

Instrument:

Created: March 07, 2010 at 12:00 AM

                              Apollo Justice - Trucy's Theme BASS TAB
              Composed by Toshihiko Horiyama, Hideki Okugawa, 
                       Naoto Tanaka, and Shu Takumi

                  Tabbed by Auriplane ([email protected])


Four-string bass, standard tuning.  There is also a GP5 file and a PDF
with sheet music, if you prefer.


G |----------------|----------------|----------------|----------------|
D |----------------|------------4---|----------------|----------------| x2
A |5---5---5-4-----|--------------5-|7---7---7-5-----|----------------|
E |-------5----5-3-|--3-3--23-3-----|-------7----7-5-|--5-5--3235-5---|


G |----------------|------------2---|----------------|----------------|
D |----------------|--------------4-|----------------|----------------|
A |3---3---3-3-5-2-|--24--2--24-----|------------2-4-|--3-3---3-3-1---|
E |-------3--------|----------------|3---3--23-5-----|-------3------3-|


G |----------------|----------------|----------------|----------------|
D |----------------|----------------|----------------|--------------2-|
A |2---2---2-4-5---|----------------|------------2---|----------------|
E |-------2------3-|--3-3--23-5-3-2-|0---0----23---5-|--5-5---235-5---|


G |----------------|------------2---|----------------|----------------|
D |----------------|--------------4-|--------------04|---------------2|
A |3---3---3-3-5-2-|--2-2----25-----|-------------2--|--3-3---3-3---3-|
E |-------3--------|-------23-------|3---3--2-3-5----|-------3-----3--|



        
Comments

No comments yet