Gametabs
Home
Tabs
Random

Sorezore no Omoi

Average rating: 5.000

1 ratings

Composer:

Tabber:

Style:

Instrument:

Created: April 25, 2016 at 12:00 AM

            				Sorezore no Omoi
		  	  ~Ano Natsu de Matteru O.S.T~

Composed and Arranged by Maiko Iuchi
Performed by Charlie Tanaka
Tabbed by Coolbreeze
Tempo = 68


      Q         E  E  E  Q.     Q       E  E  E  Q.     Q     
E||--10----||---3---------------5----|------------------3----|
B||--------||------------3-----------|--3--------3-----------|
G||--------||*--------0--------------|--------0--------------|
D||--------||*-----4-----------------|-----4-----------------|
A||--------||---2--------------------|--3--------------------|
E||--------||------------------------|-----------------------|

                                                1.
  E  E  E  Q.     Q       E  E  E  E  H           Q    Q     Q       
-----------------------|-----------------------|------------10-----||
--1--------3------3----|-----------3--L--------|--L----------------||
--------0--------------|--0-----0--------------|------------------*||
--0--4-----------------|-----4-----------------|------------------*||
-----------------------|-----------------------|-------------------||
-----------------------|--0--------------------|-------------------||

2.
  Q    H           E  E  E  E  H           E  E  E  E  Q.     E    
----------------|-----------------------|-------------------------|
--L-------------|--0--------3--L--------|-----------3---------3\--|
----------------|--------0--------------|--2-----4-----5----------|
----------------|-----4-----------------|-----3-------------------|
----------------|--2--------------------|--5----------------------|
----------------|-----------------------|-------------------------|


  E  E  E  E  H           E  E  E  E  H           E  E  E  E  H         
-----------------------|-----------------------|-----------------------|
-----------3--L--------|-----------3--L--------|-----------1--L--------|
--0-----0--------------|--------0--------------|--0-----0--------------|
-----2-----------------|-----2-----------------|-----2-----------------|
--3--------------------|--3--------------------|--0--------------------|
-----------------------|-----------------------|-----------------------|


  E  E  E  E  Q.     E      E  E  E  E  H           E  E  E  E  H         
-------------------------|-----------0--L--------|--------0--3--L--------|
-----------1-------------|--------1--------------|-----1-----------------|
--0-----2-----4------5\--|--2--0-----------------|-----------------------|
-----2--2----------------|--0--------------------|--0--------------------|
--0----------------------|-----------------------|-----------------------|
-------------------------|-----------------------|-----------------------|


  E  E  E  E  H           E  E  E  E    Q.     E     E  E  E  E  H         
-----------3--L--------|-----------1--------------|-----------------------|
--------3--------------|--------0-----3g5------3--|-----------3--L--------|
--4--4-----------------|--2--2--------------------|--0-----0--------------|
-----------------------|--------------------------|-----2-----------------|
-----------------------|--0-----------------------|--3--------------------|
--0--------------------|--------------------------|-----------------------|


  E  E  E  E  E  E  E  E     E  E  E  E  H           E  E  E  E  Q.     E    
--------------------------|-----------------------|-------------------------|
-----------3-----------3--|--------0--1--L--------|-----------1--0----------|
--------0-----------0-----|--0--------------------|--0-----2------------5\--|
-----2-----------0--------|-----2-----------------|-----2-------------------|
--3-----------2-----------|--0--------------------|--0----------------------|
--------------------------|-----------------------|-------------------------|


  E  E  E  E  H             H        H           H         Q     
-----------0--L--------|----------------------|-----------10----|
--------1--------------|----------------------|-----------------|
-----2-----------------|----------------------|-----------------|
--2--------------------|--<>4-----------------|-----------------|
--0--------------------|----------------------|-----------------|
-----------------------|----------------------|-----------------|


    E  E  E  Q.     Q       E  E  E  Q.     Q       E  E  E  Q.     Q     
|---3---------------5----|------------------3----|-----------------------|
|------------3-----------|--3--------3-----------|--1--------3------3----|
|*--------0--------------|--------0--------------|--------0--------------|
|*-----4-----------------|-----4-----------------|--0--4-----------------|
|---2--------------------|--3--------------------|-----------------------|
|------------------------|-----------------------|-----------------------|

1.                          2.
  E  E  E  E  Q     Q         E  E  E  E  H           E  E  E  E  H         
-------------------10-----||-----------------------|--3--------------------|
-----------3--L-----------||-----------3--L--------|--3--------3--L--------|
--0-----0----------------*||--0-----0--------------|--------0--------------|
-----4-------------------*||-----4-----------------|-----4-----------------|
--------------------------||-----------------------|--2--------------------|
--0-----------------------||--0--------------------|-----------------------|


  E  E  E  E  H           E  E  E  E  H           E  E  E  E  H         
-----------------------|-----------------------|-----------------------|
-----------3--L--------|--3--------3--L--------|-----------3--L--------|
--------0--------------|--------0--------------|--------0--------------|
-----4-----------------|--0--4-----------------|-----4-----------------|
--3--------------------|-----------------------|-----------------------|
-----------------------|-----------------------|--0--------------------|


  E  E  E  E  H           E  E  E  E  H           E  E  E  E  H          
--3--------------------|-----------------------|--7--------x-----------||
--3--------3--L--------|-----------3--L--------|--------------3--------||
--------0--------------|--------0--------------|--------0--------------||
-----4-----------------|-----4-----------------|-----4-----------------||
--2--------------------|--3--------------------|--5--------------------||
-----------------------|-----------------------|-----------------------||
        
Comments

No comments yet