Gametabs
Home
Tabs
Random

secret base ~Kimi Ga Kureta Mono~ (10 years after Ver.)

Average rating: 4.556

9 ratings

Composer:

Tabber:

Style:

Instrument:

Created: August 21, 2013 at 12:00 AM

                          Secret Base ~Kimi ga Kureta mono~ (10 years after Ver.)


Ano Hi Mita Hana no Namae o Bokutachi wa Mada Shiranai 
Sung by Kayano Ai & Tomatsu Haruka & Hayami Saori (Original song by Zone)
Guitar arrangement by Basisti94 (Miro Laaksonen)
18.8.2013

-------------
Note: This tab is written in triplet 8th feel.
If you don't know what that means, listen to
MIDI file for rhythm. 
-------------

Capo 6th fret
Tempo ~ 130
 
       |-3-|
 E E =  Q E
                            ^                        
     H        E  E  E  E     E  E  E  E  E  E  E  E   
E||-----------------------|-----0--0--0--0--0--L--0--|
B||-----------------1--3--|--3-----------------------|
G||--------------0--------|--2-----------------------|
D||-----------------------|--3-----------------------|
A||-----------------------|--------------------------|
E||-----------------------|--1-----------------------|


  ^                          ^                        
  E  E  E  E  E  E  E  E     E  E  E  E  E  E  E  E   
--------------------------|--------------------------|
--3--3--3--3--3--3--L--3--|--3--1--1--1--1--1--1--1--|
--0-----------------------|--2-----------------------|
--0-----------------------|--2-----------------------|
--------------------------|--0-----------------------|
--3-----------------------|--------------------------|


  ^                          ^                        
  E  E  E  E  E  E  E  E     E  E  E  E  E  E  E  E   
--------------------------|-----0--0--0--0--0--0--3--|
--1-----------------1--3--|--3-----------------------|
-----0--0--0--L--0--------|--2-----------------------|
--2-----------2-----------|--3-----------------------|
--2-----------------------|--------------------------|
--0-----------------------|--1-----------------------|


  ^                                                                        
  E  E  E  E  E  E  E  E     Q    E  E  Q    Q       Q    Q    Q    E  E   
--L--0--0--0--0--0--------|-------0--0--L---------|--------------------0--|
--0-----------------3--1--|--3--------------------|-----------------3-----|
--0-----------------------|-------------0---------|-----------------------|
--0-----------------------|-------2----------2----|-------0----2----------|
--------------------------|--3--------------------|--3--------------------|
--3-----------------------|-----------------------|-----------------------|


                                                          ^            
  Q    E  E  Q    Q       Q    Q    Q    E  E     E  Q    E  H         
-----------------------|--------------------0--|----------------------|
--3----1--1--L---------|-----------------3-----|--3--1----1--L--------|
------------------2----|------------0----------|----------0--L--------|
-------------3---------|-------0---------------|----------2--L--------|
-------3---------------|-----------------------|--3-------3--L--------|
--1--------------------|--3--------------------|----------------------|


  ^                    ^        ^      ^     ^  ^  ^    ^      ^   
  H        H           H        Q.     E     E  E  Q    Q.     E   
--------------------|---------------------|-----------------------|
-----------1--------|--1--------1------1--|--1--1--1----1------1--|
--0-----------------|--2--------2------2--|--2--2--2----2------2--|
--0-----------------|--3--------3------3--|--3--3--3----3------3--|
--2-----------------|--3--------3------3--|--3--3--3----3------3--|
--3-----------------|--1--------1------1--|--1--1--1----1------1--|


  ^        ^      ^     ^  ^  ^    ^      ^     ^        ^      ^   
  H        Q.     E     E  E  Q    Q.     E     H        Q.     E   
---------------------|-----------------------|---------------------|
--1--------1------1--|--0--0--0----0------0--|--1--------1------1--|
--2--------2------2--|--0--0--0----0------0--|--2--------2------2--|
--2--------2------2--|--0--0--0----0------0--|--3--------3------3--|
--0--------0------0--|--2--2--2----2------2--|--3--------3------3--|
---------------------|--3--3--3----3------3--|--1--------1------1--|


  ^  ^  ^    ^      ^     ^        ^      ^     ^  ^  ^    ^      ^   
  E  E  Q    Q.     E     H        Q.     E     E  E  Q    Q.     E   
-----------------------|---------------------|-----------------------|
--0--0--0----0------0--|--1--------1------1--|--1--1--1----1------1--|
--0--0--0----0------0--|--2--------2------2--|--2--2--2----2------2--|
--0--0--0----0------0--|--2--------2------2--|--2--2--2----2------2--|
--2--2--2----2------2--|--0--------0------0--|--0--0--0----0------0--|
--3--3--3----3------3--|---------------------|-----------------------|


  ^                     ^                                                
  W                     E  E  E  E  E  E  E  E     Q    E  Q.     E  E   
-------------------||---------------------------|-----------------------|
--1----------------||---1--1--1--1--1--1--1--1--|--1----0---------------|
--2----------------||*--2-----------------------|----------0---------0--|
--2----------------||*--3-----------------------|-----------------------|
--0----------------||---3-----------------------|-----------------------|
-------------------||---1-----------------------|-----------------3-----|


  ^                                                 ^                       
  E  E  E  E  Q    Q       E  E  E  Q.     E  E     E  E  E  E  E  Q    E   
------------------------|------------------------|-------------------------|
--1--1--1--1--1----1----|--1--1--0---------------|--1--1--1--1--1--1----1--|
--2---------------------|-----------0---------0--|--2----------------------|
--2---------------------|------------------------|--3----------------------|
--0---------------------|------------------------|--3----------------------|
------------------------|------------------3-----|--1----------------------|


  ^                       ^                                             
  E  Q    Q    Q    E     Q    E  E  H             Q    Q    Q    Q     
-----------------------|-----------------------||----------------------|
--3--------------------|-----------------------||----------------------|
-----0----0----0-------|--0----2--2--L--------*||-----------------0----|
--0-----------------2--|--2-------------------*||--0----2----4----2----|
-----------------------|--0--------------------||--0----3----5---------|
--3--------------------|-----------------------||----------------------|


  Q    Q    E  E  E  E     E  E  E  E  E  E  E  E     E  E  E  E  E  E  E  E   
------------------------|--------------------------|--------------------------|
------------------------|-----0--0--0--0--0--0-----|--0--1--1--1--1-----------|
--2------------2--2--0--|--2--------------------2--|--------------2--0--0-----|
-------3----------3-----|--------------0-----------|--------2--------------2--|
------------3-----------|--------2-----------2-----|--0-----------------------|
--1---------------------|--3-----------------------|--------------------------|


  E  E  E  E  Q    Q       Q    Q    E  E  E  E     E  E  E  E  E  E  E  E   
------------------------|------------------------|--------------------------|
------------------------|------------------------|-----0--0--0--0--0--0-----|
--0--2--2--2------------|--2------------2--2--0--|--2--------------------2--|
--------------2---------|-------3----------3-----|--------------0-----------|
------------------------|------------3-----------|--------2-----------2-----|
--3----------------3----|--1---------------------|--3-----------------------|


  Q    E  Q.     Q       Q    Q    Q    E  E     Q    E  Q.     E  E   
----------------------|--------------------0--|--------------------0--|
--0----1--1-----------|-----------------3-----|--3----1---------3-----|
-------0---------0----|-----------------------|----------2------------|
----------------------|-------0----2----------|-----------------------|
--3-------------------|--3---------3----------|-----------------------|
----------------------|-----------------------|--1--------------------|


  Q    E  Q.     E  E     Q    E  E  E  E  E  E     Q    E  E  Q    Q     
--------------------0--|-------------------------|------------------0----|
--3----1---------3-----|--3----1-----------------|-----------------------|
----------2------------|----------0--L--0--0-----|--0----2--2------------|
-----------------------|----------------------2--|-----------------------|
-----------------------|--0----------------0-----|-----------------------|
--3--------------------|-------------------------|--3----------3---------|


                                                    ^         ^          
  Q    E  Q.     E  E     E  E  E  E  E  E  Q       Q    Q    Q    Q     
--------------------0--|-------------------------|----------------------|
--3----1---------3-----|--3--1--------------3----|--1-------------------|
----------2------------|-----------2--2--2-------|----------------------|
-----------------------|--------------0----------|--2---------3---------|
-----------------------|-------------------------|--3----3----3----3----|
--1--------------------|--3-----3-----------3----|----------------------|


                          ^                          ^                        
  H        E  E  E  E     E  E  E  E  E  E  E  E     E  E  E  E  E  E  E  E   
-----------------------|-----0--0--0--0--0--0--0--|--L-----------------------|
-----------------1--3--|--3-----------------------|-----3--3--3--3--3--3--3--|
--------------0--------|--2-----------------------|--0-----------------------|
--2--------------------|--3-----------------------|--0-----------------------|
--3--------------------|--------------------------|--2-----------------------|
-----------------------|--1-----------------------|--3-----------------------|


  ^                         ^                                                   
  E  E  E  E  Q    E  E     E  E  E  E  E  E  E  E     E  E  E  E  E  E  E  E   
-------------------------|--------------------------|-----0--0--0--0--0--0--3--|
--L--1--1--1--1-------1--|--------------------1--3--|--3-----------------------|
--2----------------------|-----0--0--0-----0--------|--------------------2-----|
--2----------------2-----|--2-----------------------|--------------3-----------|
--0----------------------|--2-----------2-----------|--------3-----------------|
-------------------------|--0-----------------------|--1-----------------------|


  E  E  E  E  E  E  E  E     Q    E  E  Q    Q       Q    Q    E  E  E  E   
--L--0--0--0--0--0--------|-------0--0--L---------|------------------------|
--------------------3--1--|--3--------------------|------------------1--3--|
--------------0-----------|-------------0---------|---------------0--------|
--------0-----------0-----|-------2----------2----|-------0----2-----------|
--------------------------|--3--------------------|--3---------------------|
--3-----------------------|-----------------------|------------------------|


  E  E  E  E  E  E  E  E     E  E  E  E  E  E  E  E     Q    E  E  E  E  E  E   
-----0--0--0--0--0--0--0--|--------------------------|-------------------------|
--3-----------------------|--3--3--3--3--3--3--3--3--|--3----1--1--1--1--L--1--|
--------------------2-----|--------------0-----------|-------------2-----------|
--------------3-----------|--------0-----------0-----|-------2-----------2-----|
--------3-----------------|--------------------------|--0----------------------|
--1-----------------------|--3-----------------------|-------------------------|


  E  E  E  E  E  E  E  E     E  E  E  E  E  E  E  E   
--------------------------|-----0--0--0--0--0--0--3--|
--L-----------------1--3--|--3-----------------------|
-----0--0--0--L--0--------|--------------------2-----|
--------------2-----------|--------------3-----------|
--------2-----------2-----|--------3-----------------|
--0-----------------------|--1-----------------------|


  E  E  E  E  E  E  E  E     Q    E  E  Q    Q       Q    Q    Q    E  E   
--L--0--0--0--0--0--------|-------0--0--L---------|--------------------0--|
--------------------3--1--|--3--------------------|-----------------3-----|
--------------0-----------|-------------0---------|-----------------------|
--------0-----------0-----|-------2----------2----|-------0----2----------|
--------------------------|--3--------------------|--3--------------------|
--3-----------------------|-----------------------|-----------------------|


                                                          ^            
  Q    E  E  Q    Q       Q    Q    Q    E  E     E  Q    E  H         
-----------------------|--------------------0--|----------------------|
--3----1--1--L---------|-----------------3-----|--3--1----1--L--------|
------------------2----|------------0----------|----------0--L--------|
-------------3---------|-------0---------------|----------2--L--------|
-------3---------------|-----------------------|--3-------3--L--------|
--1--------------------|--3--------------------|----------------------|


  H.           E  E     E  Q    E  H          
------------------0--|----------------------||
--L------------3-----|--3--1----1--L--------||
--L------------------|----------------------||
--L------------------|----------------------||
--L------------------|----------------------||
---------------------|----------------------||




Duration Legend
---------------
W - whole
H - half
Q - quarter
E - 8th
S - 16th
T - 32nd
X - 64th
. - note dotted
|-n-|  - n-tuplets


Tablature Legend
----------------
L - tied note
x - dead note
g - grace note
(n) - ghost note
> - accentuded note
NH - natural harmonic
AH - artificial harmonic
TH - tapped harmonic
SH - semi harmonic
PH - pitch harmonic
h - hammer on
p - pull off
b - bend
s - slide
/ -  slide into from below or out of upwards
\ -  slide into from above or out of downwards
~ - vibrato
W - wide vibrato
tr - trill
TP - tremolo picking
T - tapping
S - slap
P - pop
< - fade in
^ - brush up
v - brush down

        
Comments

@BigHeadClan (August 23, 2013 at 2:57 AM)

o>O loved this song from the series, have a tab sitting from a year back that I've been neglecting.. . maybe time to finish it?

Still nice work Basisti94


@ametueraspirant (December 13, 2013 at 4:38 AM)

it goes to show how good the anime was if i can get teary almost a year after just hearing this song.