Gametabs
Home
Tabs
Random

Only Me

Average rating: 5.000

5 ratings

Composer:

Tabber:

Style:

Instrument:

Created: September 17, 2018 at 12:00 AM

            Only Me
Animal Crossing
Kazumi Totaka
arr. chit. Giuseppe De Matteis
Standard Tuning

     Q.        Q.     Q.          E  E  E  E  E  E     E  E  E  E  E  E     E  E  E  E  E  E   
E||---------|----------------||---------------------|--------------------|--------------------|
B||---------|----------------||---------------0--2--|--3--------3--------|--3--------0--2--0--|
G||---------|----------------||*--2-----------------|--------4-----4-----|--------0-----0-----|
D||---------|----------------||*--0-----0--4--0-----|-----4-----------4--|-----0--------------|
A||--0------|--2------4------||------0--------------|--2-----------------|--------------------|
E||---------|----------------||---------------------|--------------------|--3-----------------|


  E  E  E  E  E  E     E  E  E  E  E  E     E  E  E  E  E  E     E  E  E  E  E  E   
--------------------|--------------------|--------------------|--------------------|
-----------2--------|--------------0--2--|--3--------3--------|--3--------0--2--3--|
--2-----0-----0-----|--2-----------------|--------4-----4-----|--------0-----0-----|
-----2-----------2--|--0-----0--4--0-----|-----4-----------4--|-----0--------------|
--4-----------------|-----0--------------|--2-----------------|--------------------|
--------------------|--------------------|--------------------|--3-----------------|


  E  E  E  E  E  E     E  E  E  E  E  E     E  E  E  E  E  E     E  E  E  E  E  E   
--0--------------1--|--2--------5--------|--2--0--------------|--------------------|
-----------2--------|--------3-----3-----|--------3--3--------|-----------0--0--3--|
--------0-----0-----|-----2-----------2--|--------4-----4-----|--------0-----0-----|
-----2--------------|--0-----------------|-----------------4--|-----0--------------|
--4-----------------|--------------------|--2-----------------|--------------------|
--------------------|--------------------|--------------------|--3-----------------|


  E  E  E  E  E  E     E  E  E  E  E  E     E  E  E  E  E  E     E  E  E  E  E  E   
--2-----0--------0--|-----------7--------|--2--0--------------|--------------------|
-----------2--3-----|--7--------7--------|--------3--3--------|-----------0--0--3--|
--------0-----0-----|--------7-----7-----|--------4-----4-----|--------0-----0-----|
-----2--------------|-----7-----------7--|-----------------4--|-----0--------------|
--4-----------------|--5-----------------|--2-----------------|--------------------|
--------------------|--------------------|--------------------|--3-----------------|


  E  E  E  E  E  E     E  E  E  E  E  E     E  E  E  E  E  E     E  E  E  E  E  E   
--2-----0--------0--|-----------2--------|--------------------|--------------------|
-----------2--3-----|--3-----3-----3-----|-----------3--------|-----------0--------|
--------0-----0-----|-----2-----------2--|--------4-----4-----|--------0-----0-----|
-----2--------------|--0-----------------|-----4-----------4--|-----0-----------0--|
--4-----------------|--------------------|--2-----------------|--------------------|
--------------------|--------------------|--------------------|--3-----------------|


  Q.     E  E  E       E  E  E  E  E  E     E  E  E  E  E  E     Q.     Q.        Q.     Q.      
-------------------||--------------------|--------------------|----------------|--0-------------|
--2----------------||--3--------3--------|-----------3--------|--3------3------|--0------3------|
------------------*||--------4-----4-----|--------3-----3-----|--2------2------|--0------2------|
--2---------------*||-----5-----------5--|-----5-----------5--|--0------4------|--2------4------|
--4------0--2--4---||--5-----------------|--5-----------------|----------------|---------5------|
-------------------||--------------------|--------------------|----------------|----------------|


   E  E  E  E  E  E      E  E  E  E  E  E      E  E  E  E  E  E     E  E  E  E  E  E   
---7-----------------|---------------------|---------------------|-----------------7--|
------------8--------|------------8--------|------------8-----3--|--0-----3-----8-----|
---------7-----7-----|---------7-----7-----|---------7-----------|-----------0--------|
------9-----------9--|------9-----------9--|------9--------0-----|--------0-----0-----|
--10-----------------|--10-----------------|--10-----------------|-----2--------------|
---------------------|---------------------|---------------------|--3-----------------|


  E  E  E  E  E  E     E  E  E  E  E  E     E  E  E  E  E  E     E  E  E  E  E  E   
--7--5--------------|--------------------|-----------5-----7--|--2--0--------------|
-----------7--------|-----------7--------|--------0-----0-----|--------3--3--------|
--------7-----7-----|--------7-----7-----|-----------7--------|--------4-----4-----|
--0--------------7--|-----7-----------7--|--------------------|-----------------4--|
--------------------|--5-----------------|-----9--------------|--2-----------------|
--------------------|--------------------|--7-----------------|--------------------|


  E  E  E  E  E  E     E  E  E  E  E  E     E  E  E  E  E  E     E  E  E  E  E  E   
--------5--5-----7--|--2--0--------------|--0--------0--------|-----------0--------|
--------2-----------|--------3--3-----0--|--------0-----0-----|--------0-----0-----|
--------------6-----|--------4-----------|-----1-----------1--|-----1-----------1--|
-----4--------------|--------------------|--2-----------------|--------------------|
--2-----------------|--2-----------2-----|--------------------|--2-----------------|
--------------------|--------------------|--------------------|--------------------|


  Q.     Q.        Q.     Q.        E  E  E  E  E  E     E  E  E  E  E  E     E  E  E  E  E  E   
----------------|----------------|--------------------|--------------------|--------------------|
--2-------------|----------------|--------------0--2--|--3--------3--------|--3--------0--2--0--|
--2-------------|----------------|--2-----------------|--------4-----4-----|--------0-----0-----|
--2-------------|----------------|--0-----0--4--0-----|-----4-----------4--|-----0--------------|
---------0------|--2------4------|-----0--------------|--2-----------------|--------------------|
----------------|----------------|--------------------|--------------------|--3-----------------|


  E  E  E  E  E  E     E  E  E  E  E  E     E  E  E  E  E  E     E  E  E  E  E  E   
--------------------|--------------------|--------------------|--------------------|
-----------2--------|--------------0--2--|--3--------3--------|--3--------0--2--3--|
--2-----0-----0-----|--2-----------------|--------4-----4-----|--------0-----0-----|
-----2-----------2--|--0-----0--4--0-----|-----4-----------4--|-----0--------------|
--4-----------------|-----0--------------|--2-----------------|--------------------|
--------------------|--------------------|--------------------|--3-----------------|


  E  E  E  E  E  E     E  E  E  E  E  E     E  E  E  E  E  E     E  E  E  E  E  E   
--0--------------1--|--2--------5--------|--2--0--------------|--------------------|
-----------2--------|--------3-----3-----|--------3--3--------|-----------0--0--3--|
--------0-----0-----|-----2-----------2--|--------4-----4-----|--------0-----0-----|
-----2--------------|--0-----------------|-----------------4--|-----0--------------|
--4-----------------|--------------------|--2-----------------|--------------------|
--------------------|--------------------|--------------------|--3-----------------|


  E  E  E  E  E  E     E  E  E  E  E  E     E  E  E  E  E  E     H        E  E     Q    Q    E  E   
--2-----0--------0--|-----------7--------|--2--0--------------|-----------------|--2---------------|
-----------2--3-----|--7--------7--------|--------3--3--------|--0-----------3--|--2----5----3-----|
--------0-----0-----|--------7-----7-----|--------4-----4-----|--0--------4-----|--2------------6--|
-----2--------------|-----7-----------7--|-----------------4--|--0--------------|------------------|
--4-----------------|--5-----------------|--2-----------------|--2--------------|--0---------------|
--------------------|--------------------|--------------------|-----------------|------------------|


  E  E  E  E  E  E     E  E  E  E  E  E     Q.     Q.         H.             
--------------------|--------------------|----------------|--10------------||
--3--------3--------|-----------3--------|--3------3------|---7------------||
--------4-----4-----|--------3-----3-----|--2-------------|---7------------||
-----5-----------5--|-----5-----------5--|--4-------------|---0------------||
--5-----------------|--5-----------------|----------------|----------------||
--------------------|--------------------|----------------|----------------||




Duration Legend
---------------
W - whole
H - half
Q - quarter
E - 8th
S - 16th
T - 32nd
X - 64th
. - note dotted
|-n-|  - n-tuplets


Tablature Legend
----------------
L - tied note
x - dead note
g - grace note
(n) - ghost note
> - accentuded note
NH - natural harmonic
AH - artificial harmonic
TH - tapped harmonic
SH - semi harmonic
PH - pitch harmonic
h - hammer on
p - pull off
b - bend
br - bendRelease
pb - preBend
pbr - preBendRelease
brb - bendReleaseBend
\n/ - tremolo bar dip
\n - tremolo bar dive
-/n - tremolo bar Release up
/n\ - tremolo bar inverted dip
/n - tremolo bar return
-\n - tremolo bar Release down
S - shift slide
s - legato slide
/ -  slide into from below or out of upwards
\ -  slide into from above or out of downwards
~ - vibrato
W - wide vibrato
tr - trill
TP - tremolo picking
T - tapping
S - slap
P - pop
< - fade in
^ - brush up
v - brush down

        
Comments

@coobs (September 19, 2018 at 1:52 AM)

thanks for the tab. fun to play.