Gametabs
Home
Tabs
Random

Nook's Cranny

Average rating: No ratings

Composer:

Tabber:

Style:

Instrument:

Created: September 12, 2013 at 12:00 AM

            e-------------------------------------------
B-------------------------------------------
G-------------------------------------------
D-------------------------------------------
A---------8-6--4-6-7-4----------------------
E-4-6-7-4--------------6-4------------------

e-------------------------------------------
B-------------------------------------------
G-------------------------------------------
D-------------------------------------------
A---------8-6-4-3---------------------------
E-4-6-7-4---------6-4-2---------------------
        
Comments

No comments yet