Gametabs
Home
Tabs
Random

Lucky K.K. Aircheck

Average rating: No ratings

Composer:

Tabber:

Style:

Instrument:

Created: December 27, 2013 at 12:00 AM

            Song: Lucky K.K.
Game: Animal Crossing series
Composer: Kazumi Totaka

Standard tuning

e|------------------7------5------|----------------------5--------|
B|--5---7--8--7--5------5------8--|--5---7--8--7--5--7------8--7--|
G|--------------------------------|-------------------------------|
D|--------------------------------|-------------------------------|
A|--------------------------------|-------------------------------|
E|--------------------------------|-------------------------------|

e|------------------7------7--|--12--10----9--------10--9--------------|
B|--5---7--8--7--5------5-----|---------------12------------10--12-----|
G|----------------------------|-------------------------------------7--|
D|----------------------------|----------------------------------------|
A|----------------------------|----------------------------------------|
E|----------------------------|----------------------------------------|

e|------------------7------5------|----------------------5--------|
B|--5---7--8--7--5------5------8--|--5---7--8--7--5--7------8--7--|
G|--------------------------------|-------------------------------|
D|--------------------------------|-------------------------------|
A|--------------------------------|-------------------------------|
E|--------------------------------|-------------------------------|

e|------------------7------7--|--12--14--12--------14--12---14--12--|
B|--5---7--8--7--5------5-----|--------------15---------------------|
G|----------------------------|-------------------------------------|
D|----------------------------|-------------------------------------|
A|----------------------------|-------------------------------------|
E|----------------------------|-------------------------------------|

e|--10h12p10--9------9-------------------|--12--10--9------9-------------------|
B|---------------12------10--9---10--12--|-------------12------10--9---10--12--|
G|---------------------------------------|-------------------------------------|
D|---------------------------------------|-------------------------------------|
A|---------------------------------------|-------------------------------------|
E|---------------------------------------|-------------------------------------|

e|--10h12p10--9------9-------------------|--12--14---12p10h12---9------|
B|---------------12------10--9---10--12--|-------------------------12--|
G|---------------------------------------|-----------------------------|
D|---------------------------------------|-----------------------------|
A|---------------------------------------|-----------------------------|
E|---------------------------------------|-----------------------------|

e|--10--10--10--10--9------9-------------------|--12--10h12p10--9------9-------------------|
B|---------------------12------10--9---10--12--|-------------------12------10--9---10--12--|
G|---------------------------------------------|-------------------------------------------|
D|---------------------------------------------|-------------------------------------------|
A|---------------------------------------------|-------------------------------------------|
E|---------------------------------------------|-------------------------------------------|

e|--10--9------9---12--14---17--16--|--17--19--17--16-------------------|
B|---------12-----------------------|------------------19--17-----------|
G|----------------------------------|--------------------------18--16---|
D|----------------------------------|-----------------------------------|
A|----------------------------------|-----------------------------------|
E|----------------------------------|-----------------------------------|

Repeat the first half again and then play everything from the beginning

h - hammer on
p - pull off
        
Comments

No comments yet