Gametabs
Home
Tabs
Random

Town Hall (Day)

Average rating: 4.200

5 ratings

Composer:

Tabber:

Style:

Instrument:

Created: May 12, 2009 at 12:00 AM

            town center
Animal Crossing
composed by Kazumi Totaka 
tabbed by quinnpm
2/26/09

e-----2-1-0-0-1-2-2-1-0-2-1-0-2-1-0-2-1-0-2-1-0
B----------------------------------------------
G----------------------------------------------
D----------------------------------------------
A----------------------------------------------
E----------------------------------------------

e----------------------------------------------
B-2-1-0-0-1-2-2-1-0-2---2-4-5-7-9-5-2-0-0-0----
G----------------------------------------------
D----------------------------------------------
A----------------------------------------------
E----------------------------------------------

e----------------------------------------------
B-2-2-2-2-2-0-2-0-2-0-----0-0-0-0-0--0----0----
G----------------------------------2--2----2---
D----------------------------------------------
A----------------------------------------------
E----------------------------------------------

e----------------------------------------------
B--2-2-2-2-2-0-2-0-2-0-------------------------
G----------------------------------------------
D----------------------------------------------
A----------------------------------------------
E----------------------------------------------

Then just repeat

        
Comments

@HorizonsEndInc (May 13, 2009 at 11:54 PM)

Niiice.


@snowninja14 (October 08, 2009 at 4:34 PM)

Lolz, simple, yet completely awesome!! :P


@jader7777 (October 14, 2010 at 6:48 AM)

I can't get the timing right. I'm listening to the original but can't seem to pick it up beyond the first 5 notes.


@Gradyn97 (April 28, 2013 at 8:34 PM)

wonderful and easy the way i like it