Gametabs
Home
Tabs
Random

1PM

Average rating: 5.000

2 ratings

Composer:

Tabber:

Style:

Instrument:

Created: July 19, 2021 at 12:00 AM

            "1PM" - Animal Crossing: Wild World
Composers : Kazumi Totaka
Arrangement : judgexii
Tuning : Standard EADGBe
BPM : 80 (4/4 time)
   
   Intro
   e  e  e  s s e  e  e  e       e  e  e  s s e  e  e  e       
e-----2-----2------2-----2----|-----3-----3------3-----3----||
B-----3-----3------3-----3----|-----5-----5------5-----5----||
G-----4-----4------4-----4----|-----5-----5------5-----5----||
D---------------0--0----------|---------------0--0----------||
A-----------------------------|--0----------0---------------||
E--3----------3---------------|-----------------------------||

   Part 1
   e  e  s s s s e  e  e  s s    e  e  e  s s e  e  e  e       e  e  s s s s e  e  e  s s    e  e  e  s s e  e  e  e 
e-----2------5-3----------2-0-|-----3-----3------3-----3----|-----2------5-3----------7-7-|-----3-----3------3-----3----|
B-----3----3--------3-----3---|-----5-----5------5-----5----|-----3----3--------3---------|-----5-----5------5-----5----|
G-----4--4----------4-----4---|-----5-----5------5-----5----|-----4--4----------4-----7---|-----5-----5------5-----5----|
D----------------0--0---------|---------------0--0----------|----------------0--0---------|---------------0--0----------|
A-----------------------------|--0----------0---------------|-----------------------------|--0----------0---------------|
E--3-----x-----3-------x------|--------x------------x-------|--3-----x-----3-------x------|--------x------------x-------|

   e  e  s s s s e  e  e  s s    e  e  e  s s e  e  e  s s     e  e  e  s s e  e  e  e       e  e  e  s s e  e  e  e 
e-----2------5-3----------2-0-|-----3------------0----------|-----2-----2------2-----2----|---------------------2--3----|
B-----3----3--------3-----3---|-----5-----3-1----1-----5-3--|-----3-----3------3-----3----|--3------------3--5----------|
G-----4--4----------4-----4---|-----5-----5------0-----5----|-----4-----4------4-----4----|-----------4-5----5----------|
D----------------0--0---------|---------------0--0----------|---------------0--0----------|-----0-----0---0--0----------|
A-----------------------------|--0----------0---------------|-----------------------------|--0----------0---------------|
E--3-----x-----3-------x------|--------x------------x-------|--3-----x----3-------x-------|--------x------------x-------|

   e  e  e  s s e  e  e  e       e  e  e  s s e  e  e  e       e  s s e  s s e  e  e  e      e  e  s s s s e  e  e  e 
e-----2-----2------2-----2----|---------------------2--3----|--5--3-2-0---------2-----2---|------------7-5----5-----5---|
B--3--3-----3------3-----3----|--3------------3--5----------|-----3------3------3-----3---|-----5----5--------5-----5---|
G-----4-----4------4-----4----|-----------4-5----5----------|-----4------4------4-----4---|-----5--5----------5-----5---|
D---------------0--0----------|-----0-----0---0--0----------|----------------0--0---------|----------------0--0---------|
A-----------------------------|--0----------0---------------|-----------------------------|--0-----------0--------------|
E--3-----x----3-------x-------|--------x------------x-------|--3------x----3-------x------|--------x-------------x------|

   e  e  s s s s e  e  e  e      e  e  s s s s e  e  e  e      e  e  s s s s e  e  e  e      e  e  s s s s e  e  e  e
e-----2------5-3----2-----2---|------------7-5----5-----5---|-----2------5-3----2-----2---|------------7-5----5-----5---||
B-----3----3--------3-----3---|-----5----5--------5-----5---|-----3----3--------3-----3---|-----5----5--------5-----5---||
G-----4--4----------4-----4---|-----5--5----------5-----5---|-----4--4----------4-----4---|-----5--5----------5-----5---||
D----------------0--0---------|----------------0--0---------|----------------0--0---------|----------------0--0---------||
A-----------------------------|--0-----------0--------------|-----------------------------|--0-----------0--------------||
E--3-----x-----3-------x------|--------x-------------x------|--3-----x-----3-------x------|--------x-------------x------|| Back to Part 1

Note Legend
-----------
w - whole
h - half
q - quarter
e - eighth
. - dotted

Tab Legend
-----------
() - continue holding note
h - hammer on
p - pull off
/ - slide up
\ - slide down
<> - natural harmonic
^ - brush up
        
Comments

No comments yet