Gametabs
Home
Tabs
Random

Main Street by Night 3

Average rating: 5.000

1 ratings

Composer:

Tabber:

Style:

Instrument:

Created: January 28, 2021 at 12:00 AM

            Title: Main Street by Night 3
Album: Animal Crossing: New Leaf
Music: Manaka Kataoka,Atsuko Asahi,Kazumi Totaka
Tabber: H.F.

Tempo = 78

Legend
L - tied note


E |-------------------------------|--6----||-1--0-------|----------------------|
B |-----1--0--0--------4----------|-------||-------1----|--3-------------------|
G |--2--------0--5--7--5----------|--3----||o2--0-------|--------2--0--2-------|
D |--3-----------------6----------|-------||o------2----|--3-----0-------------|
A |-------------------------------|-------||------------|--1-------------------|
E |-------------------------------|-------||------------|----------------------|


-------------|-------------|-------------|----------------------|-------------|
--1--1-------|-----1-------|-------------|--2--4--1-----1-------|--4--4-------|
-----0-------|--0----------|--3--2-------|-----------3----------|-----0-------|
-----2-------|-----2--2----|--4--4-------|--------3-------------|--1----------|
--3----------|--0--3-------|--5----------|--4-------------------|-------------|
-------------|-------------|-------------|----------------------|-------------|


-------------|-------------|-----2-------|-----2-------|-------------|
-----4-------|--2--1-------|-------------|-------------|--2----------|
--3--5--3----|--2L-2-------|-------------|-------------|--------3----|
--------5----|--3--3-------|--2----------|--4----------|--1--4-------|
--3--6-------|-------------|-------------|-------------|-------------|
-------------|-------------|-------------|-------------|-------------|


-------------|--4----|--8----|-------|--------13-11-13------|-------|--8---|||
-----1-------|--2----|-------|-------|----------------------|-------|------|||
--1----------|-------|-------|-------|--11------------------|-------|-----o|||
--2--1-------|-------|-------|-------|--11------------------|-------|-----o|||
-------------|-------|-------|-------|----------------------|-------|------|||
-------------|-------|-------|-------|----------------------|-------|------|||


        
Comments

No comments yet