Gametabs
Home
Tabs
Random

8PM (Acoustic)

Average rating: No ratings

Composer:

Tabber:

Style:

Instrument:

Created: January 10, 2019 at 12:00 AM

            Another version/arrengement of 2013's fuzzguitar1222 '8:00 PM', for acoustic guitar/focused on lower notes. Hold the notes of the fifth and sixth strings.
First tab so i don't know if it's well written. Any feedback would be appreciated. Enjoy!
Also, i added the original fuzzguitar1222 tab so you can check it out + here's the gametabs link: https://www.gametabs.net/animal-crossing-new-leaf/800-pm


Gtr I (E A D G B E) - '8PM'

  Q=80
 4/4
  Gtr I
  Q  E  E  E  E  E  E    Q   E  E  E  E  E  E
|---------------------|-----------------------|
|----------1----------|-----------------------|
|-------------3--2h-3-|--2------------------3-|
|---------------------|---------3--------3----|
|-------3-------------|------3-----3--5-------|
|---------------------|--1------------6-------|
                         H         H


   E  Q.  Q   E E   Q   E E E E E E
|-----------------|-------------------|
|--6--5/6---------|-------------------|
|---------------0-|-------------------|
|-------------3---|-6-5/6---8-6-5-----|
|---------5---3---|-4-------6-----8---|
|-----5-----------|-------------------|
   H      Q   Q     E E Q   E E E


  H    Q   Q    E E E E Q E S S   E E E E E E E E   Q   Q  H
|-------------|-----------------|-----------------|-1--/8-------|
|-------------|-----1---1-------|-------1-3-----3-|-------------|
|-------------|-----3-------3-2-|-0-2-3---3-2-3---|-------------|
|-------------|---3---3---------|-----------------|-------------|
|-8-----------|-1-------0-------|-1---------------|-------------|
|10---10\--1--|-----------------|-----------------|-------------|
                E                 H       H


  E E E E E  E  E  E    H    Q  E E   H    Q  E E   H
|---------------9-13-|-12-----------|-------------|------|
|---------7-11-11-13-|-13-----------|-5-------5---|-5----|
|-------6------------|------------7-|-7---------7-|-5----|
|---6-8--------------|--------------|-------------|------|
|---4----------------|--------------|-------------|-5----|
|--------------------|--------------|-------------|------|

Tab in progress.

        
Comments

No comments yet