Gametabs
Home
Tabs
Random

Stale Cupcakes

Average rating: 4.500

2 ratings

Composer:

Tabber:

Style:

Instrument:

Created: December 14, 2020 at 12:00 AM

            time signature: 4/4
bpm:80
capo 5

      E  E  E  E  E  E  Q       E  E  E  E  E  E  Q       E  E  E  E  E  E  Q
E||---------0-----2--0--5----|--------0-----2--0--5----|--------0-----2--0--5----|
B||------------3-------------|-----------3-------------|-----------3-------------|
G||*-----2-------------------|-----2-------------------|-----2-------------------|
D||*--0----------------------|-------------------------|--0----------------------|
A||--------------------------|--------------------0----|-------------------------|
E||--------------------------|-------------------------|-------------------------|



   E  E  E  E  E  E  E  E     E  E  E  E  E  E  Q       E  E  E  E  E  E  Q
|--------0-----2--0--5-----|--------0-----2--0--5----|--------0-----2--0--5----|
|-----------3--------------|-----------3-------------|-----------3-------------|
|-----2--------------------|-----2-------------------|-----2-------------------|
|--0--------0--2-----0-----|-------------------------|--------------------0----|
|--------4--------------4--|--2----------------------|--------2-----4----------|
|--------------------------|-------------------------|--3----------------------|	


   E  E  E  E  E  E  E  E     E  E  E  E  E  E  Q       E  E  E  E  E  E  Q
|--------0-----2--0--5-----|--------0-----2--0--5----|--------0-----2--0--5----|
|-----------3--------------|-----------3-------------|-----------3-------------|
|-----2--------------------|-----2-------------------|-----2-------------------|
|--0-----------------------|-------------------------|-------------------------|
|-----------0--------------|-----0--2----------------|--0----------------------|
|--2-----------2--------2--|--3----------------------|-------------------------|


   E  E  E  E  E  E  Q       E  E  E  E  E  E  E  E     E  E  E  E  E  E  Q
|--------0-----2--0--5----|--------0-----2--0--5-----|--------0-----2--0--5----|
|-----------3-------------|-----------3--------------|-----------3-------------|
|-----2-------------------|-----2--------------------|-----2-------------------|
|--0----------------------|--0--------0--2--2--0-----|-------------------------|
|-------------------------|--------4--------------4--|--2----------------------|
|-------------------------|--------------------------|-------------------------|


   E  E  E  E  E  E  Q       E  E  E  E  E  E  E  E     E  E  E  E  E  E  Q
|--------0-----2--0--5----|--------0-----2--0--5-----|--------0-----2--0--5----|
|-----------3-------------|-----------3--------------|-----------3-------------|
|-----2-------------------|-----2--------------------|-----2-------------------|
|--------------------0----|--0-----------------------|-------------------------|
|--------2-----4----------|-----------0--------------|-----0--2----------------|
|--3----------------------|--2-----------2--------2--|--3----------------------|

1st Ending ------------>
   AH                                          AH H  AH AH H  AH  
   H        H           W                   E  E  E  E  E  E  Q     
|--------------------|-------------------|-------<0>---<2><0><5>----|
|--------------------|-------------------|----------<3>-------------|
|-<14>---------------|-------------------|----<2>-------------------|
|--0--------2--------|--0----------------|--------------------------|
|--------------------|-------------------|--------------------------|
|--------------------|-------------------|--------------------------|

      AH H  AH AH H  AH          H  AH H  AH AH AH         H  AH H  AH AH  
   E  E  E  E  E  E  Q        E  E  E  E  E  E  Q       E  E  E  E  E  E  Q
|-------<0>---<2><0><5>----|-------------------------|-------------------------||
|----------<3>-------------|-------------------------|-------------------------||
|----<2>-------------------|-------------------<2>---|--------------------2---*||
|--------------------------|-------<2><0><4><2>------|-------<2><0><4><2>-----*||
|--------------------------|----<0>------------------|----<0>------------------||
|--------------------------|-------------------------|-------------------------||

2nd Ending---------------------------|
   AH
   H    H           W
|----------------|-------------------|
|----------------|-------------------|
|-<2>------------|-------------------|
|--0----2--------|--0----------------|
|----------------|-------------------|
|----------------|--2----------------|

        
Comments

No comments yet