Gametabs
Home
Tabs
Random

Memories With the Family

Average rating: 5.000

4 ratings

Composer:

Tabber:

Style:

Instrument:

Created: September 22, 2014 at 12:00 AM

            Title: Memories With The Family
SubTitle: Akuma No Riddle
Artist: Yoshiaki Fujisawa
Tabber: Mitch Jackson
Tempo = 72
T/S = 4/4
                          


    ♪♫•*¨*•.¸¸ CAPO 2 ¸¸.•*¨*•♫♪ 



     E  E  E  E  H                E  E  E  E  Q     Q          E  E  E  E  Q.       E       E  E  E  E  Q     E  E     
E |----------------------------|--------------------3-------|----------------------------|-----------------------3----|
B |--------0-----3-------------|--------0-----3-------------|--3-----0-----3--------1----|--0-----0-----3-----1-------|
G |-----------0----------------|-----------0----------------|-----------0----------------|-----0-----0----------------|
D |-----2----------------------|-----2----------------------|-----2----------------------|-----2----------------------|
A |--0-------------------------|--0-------------------------|--0-------------------------|--0-------------------------|
E |----------------------------|----------------------------|----------------------------|----------------------------|

                                                          
     E  E  E  E  H                E  E  E  E  E  E  E  E       E  E  E  E  H                E  E  E  E  Q     E  E     
  |----------------------------|----------------------------|-----3--5-------------------|-----------------------3----|
  |--3-----0-----3-------------|--------0-----3--3--1--0----|--0-----0-----3-------------|--------0-----3-----1-------|
  |-----------0----------------|-----------0----------------|-----------0----------------|-----------0----------------|
  |-----2----------------------|-----2----------------------|-----2----------------------|-----2----------------------|
  |--0-------------------------|--0-------------------------|--0-------------------------|--0-------------------------|
  |----------------------------|----------------------------|----------------------------|----------------------------|

                                                          
     E  E  E  E  H                E  E  E  E  E  Q     S S      E  E  E  E  H                E  E  E  E  E  E  Q        
  |----------------------------|-----------------------------|-----5----------------------|--------------------3-------|
  |--3-----------3-------------|--------------3--1-----0-----|--------------3-------------|--------------1--3----------|
  |--------0-------------------|--------0----------------0---|--------0-------------------|--------0--2----------------|
  |-----------3----------------|-----------3-----------------|-----------3----------------|-----0----------------------|
  |-----3----------------------|-----3-----------------------|-----3----------------------|----------------------------|
  |--1-------------------------|--1--------------------------|--1-------------------------|--3-------------------------|

                                                     
     Q     Q     E  E  E  S S      Q     Q.       E  E  E       Q     Q     E  E  E  S S      Q     Q.       E  E  E     
  |--------8-----8--6-----6-4---|--3--------------15-13-10---|--8-----------8--6-----6-4---|--3-----3-------------------|
  |--------6-----6-----6--------|--6-----3-------------------|--------6-----6-----6--------|--6-----3----------<3>------|
  |--5-----------5--------------|--5-----5-------------------|--------5-----5--------------|--5-----5-------------<5>---|
  |--------6-----8--------------|--3-----5-------------------|--------6-----8--------------|--3-----5-------<5>---------|
  |-----------------------------|----------------------------|-----------------------------|----------------------------|
  |-----------------------------|----------------------------|-----------------------------|----------------------------|

                                  ^                                         ^                            ^  
     W                            E  E  E  E  E  E  E  S S      E  E  E  E  Q     Q          E  E  E  E  E  E  E  E     
  |----------------------------|--------------------6--4-----|--1--------1----------------|--------1--------------3----|
  |----------------------------|-----3--4-----4----------8---|--------1--4--3-----6-------|--4--------------4----------|
  |----------------------------|--5--------------5-----------|-----3--------5-------------|--------1--3--3-----3-------|
  |-<5>------------------------|--5--------------------------|----------------------------|-----1--------3-----5-------|
  |----------------------------|--3--------6-----6-----------|--1-------------------------|--------------6-------------|
  |----------------------------|--------------4--------------|--------------3-------------|--4-----------3-------------|

     ^                            ^                                         ^                ^               
     E  E  E  E  Q     Q          E  E  E  E  E  E  E  S S      Q     E  E  Q     Q          E  E  E  E  E  E  E  E     
  |--1--------3--------1-------|--6--------3--6-----6--4-----|--1-------------------------|-----------6--6-----3-------|
  |--1--3--4-----4-----3-------|--------3--------4-------8---|--3-----------3-------------|--4-----4--------4-----6----|
  |--2-----------3-----3-------|--5--5-----------------------|--3-----5--7--3-----3-------|--5--3--------3-------------|
  |--------------3-----0-------|--5--------------------------|--------6-----5-----5-------|----------------------------|
  |--------------1-------------|--3--------------6-----------|--1-----------5-------------|----------------------------|
  |--1-------------------------|--------------4--------------|--------4-----3-------------|--4-----------3-------------|

                                   ^                            ^                                      RALL------------>
     E  E  E  E  E  E  E  S S      Q     Q     E  E  E  E       E  E  E  Q     Q     S S      E  E  E  E  E  E  E  E     
  |-----------6--6-----3----3---|--4-----3-------------------|--1--------------1-----------|--------------------3-------|
  |--------4--------4-----6-----|--------------4-----4--6----|--4--------1-----------3p1---|--3-----------1--3-----1----|
  |-----3-----------------------|--5-----3-----3--3----------|--3-----3--------------------|--------0--2----------------|
  |-----------------------------|--3-----5-----6-------------|-----3-----------------------|-----0----------------------|
  |-----------------------------|----------------------------|--1--------------------------|----------------------------|
  |--4-----------3--------------|----------------------------|-----------------------------|--3-------------------------|
                      
     ^
     Q     H.                     H.                E  E       E  E  E  E  H                E  E  E  E  Q     E  E     
  |----------------------------|-----------------------15---|--10----7-----10------------|--------7-----10-------15---|
  |--0-------------------------|--------------------13------|-----------8----------------|-----------8--------13------|
  |--0-------------------------|----------------------------|-----9----------------------|-----9----------------------|
  |--0-------------------------|----------------------------|--7-------------------------|--7-------------------------|
  |----------------------------|----------------------------|----------------------------|----------------------------|
  |--------3-------------------|--L-------------------------|----------------------------|----------------------------|

                               
     E  E  E  E  Q     E  E       E  E  E  E  Q     E  E       E  E  E  E  H                E  E  E  E  E  E  E  E     
  |-----10-7-----10----8--7----|--------7-----10-------15---|--10----7-----10------------|--------7-----10-8-----15---|
  |-----------8----------------|-----8-----8--------13------|-----------8----------------|-----------8--------8-------|
  |-----9----------------------|-----9----------------------|-----9----------------------|-----9----------------------|
  |--7-------------------------|--7-------------------------|--7-------------------------|--7-------------------------|
  |----------------------------|----------------------------|----------------------------|----------------------------|
  |----------------------------|----------------------------|----------------------------|----------------------------|

   RALL----------------------->
     E  E  E  E  E  E  E  E       W
  |-----17-------10----10-15---|-<7>------------------------||
  |-------<12>-----<12>--------|----------------------------||
  |----------<12>--------------|----------------------------||
  |----------------------------|----------------------------||
  |-<12>-----------------------|----------------------------||
  |----------------------------|----------------------------||


        
Comments

@kineforce (June 07, 2021 at 3:29 AM)

Perfect!