Gametabs
Home
Tabs
Random

Kaisouroku

Average rating: 5.000

4 ratings

Composer:

Tabber:

Style:

Instrument:

Created: May 18, 2017 at 12:00 AM

            Kaisouroku
Air
Magome Togoshi
arr. chit. Giuseppe De Matteis
Standard Tuning

Capo 3

     E  E  E  E  E  E  E  E     E  E  E  E  E  E  E  E   
E||--------0--L--2--4--0-----|--------------------------|
B||--0--L-----------0-----0--|--0--L--------0-----2-----|
G||--------------------1-----|--------2--L--------------|
D||--------2-----4-----------|-----2-----2-----2-----2--|
A||-----2-----2-----------2--|--0-----0-----------------|
E||--0-----------------------|--------------------------|


  E  E  E  E  E  E  E  E       E  E  E  E  E  E  E  E   
--------0--L--2--4--0-----|----------------------------|
--0--L-----------0-----0--|--4g2--L--0-----------2-----|
--------------------1-----|----------2--2--------------|
--------2-----4-----------|-------2-----2--2--2-----2--|
-----2-----2-----------2--|----0-----------2-----------|
--0-----------------------|----------------------------|


    E  E  E  E  E  E  E  E     E  E  E  E  E  E  E  E   
----------------------------|--------------------------|
----------------------------|--0--L--------------2-----|
----------------1--L--2--L--|--------2--L--------------|
--2g1--2--4--L--------1-----|-----2-----2--2--2-----2--|
----2--L--2-----4-----------|--0-----0-----2-----------|
-------------2-----2-----2--|--------------------------|


    E  E  E  E  E  E  E  E     E  E  E  E  E  E  E  E     
----------------------------|--0--L---------------------||
----------------------------|--------0--L---------------||
----------------1--L--2--L--|--------------2--L--2-----*||
--2g1--2--4--L--------1-----|-----2-----2-----2-----2--*||
----2--L--2-----4-----------|--0-----2-----0------------||
-------------2-----2-----2--|---------------------------||


  E  E  E  E  E  E  E  E     E  E  E  E  E  E  E  E   
--------------------------|-----------------------4--|
--------------------0--L--|--1--L--L--1--4--L--4-----|
--------------1--L--------|--------1--------1--------|
--1--2--4--L--------------|-----1--------1-----------|
--2--L--2-----4-----2-----|--------------------------|
-----------2-----2-----2--|--4-----------------------|


  E  E  E  E  E  E  E  E     H.           E  E     E  E  E  E  E  E  E  E   
-----------4--------0--4--|--4------------------|--0--L--------------------|
--5--L--5-----4--L--------|--2------------2--4--|-----------2--4--L--0--L--|
--------------------------|---------------------|--------2--L--------------|
-----6-----------6--L-----|---------------------|-----2-----------4--1-----|
--4-----------2-----------|--1------------------|--0-----0-----2--------2--|
--------------------------|---------------------|--------------------------|


  E  E  E  E  H          
--0--L--L--L-----------||
-----------------------||
--2--------2--1--------||
--2-----2-----4--------||
-----2-----------------||
--------------0--------||
        
Comments

No comments yet