Gametabs
Home
Tabs
Random

Midnight

Average rating: No ratings

Composer:

Tabber:

Style:

Instrument:

Created: November 14, 2012 at 12:00 AM

            This is a track by Pablo Vega from the brilliant game AI War: Fleet Command, tabbed by ear.

Time Signature: 4/4
Tempo: 109 BPM mostly, steadily increases during the break

The piano chords and the chimes can be heard in the Guitar Pro file... and the melody goes a little something
like this:


      Q     E  Q    Q    E     Q    E  Q    Q    E     E  Q    Q.     E  E     Q    E  Q    Q.      
E||--11----10--6---------8--|--L----6---------------|-----------------------|----------------------|
B||-----------------8-------|----------6---------6--|--L--8-----------8--6--|--L-------------------|
G||-------------------------|---------------8-------|----------8------------|-------8--7-----------|
D||-------------------------|-----------------------|-----------------------|---------------8------|
A||-------------------------|-----------------------|-----------------------|----------------------|
E||-------------------------|-----------------------|-----------------------|----------------------|


   Q     E  Q    Q    E     Q    E  Q    Q    E     E  Q    Q.     E  E     Q    E  Q.     E   E   
--11----10--6---------8--|--L----6---------------|-----------------------|-----------------8--10--|
-----------------8-------|----------6---------6--|--L--8-----------8--6--|--L---------------------|
-------------------------|---------------8-------|----------8------------|-------8--7-------------|
-------------------------|-----------------------|-----------------------|------------------------|
-------------------------|-----------------------|-----------------------|------------------------|
-------------------------|-----------------------|-----------------------|------------------------|


   Q     E   Q     Q     E     Q    E  H        E     Q    E  Q    Q    E     H.           E   E   
--11----11--11----13----10--|--L----8--6-----------|--8----6--6------------|---------------8--10--|
----------------------------|-------------------8--|---------------6----8--|--L-------------------|
----------------------------|----------------------|-----------------------|----------------------|
----------------------------|----------------------|-----------------------|----------------------|
----------------------------|----------------------|-----------------------|----------------------|
----------------------------|----------------------|-----------------------|----------------------|


   Q     E   Q     Q     E     Q    E  H        E      Q    E   Q    Q     E      Q.      E   Q    Q     
--11----11--11----13----10--|--L----8--6--------L--|--------8--10---------11--|---L------11--10----6----|
----------------------------|----------------------|--12-------------8--------|-------------------------|
----------------------------|----------------------|--------------------------|-------------------------|
----------------------------|----------------------|--------------------------|-------------------------|
----------------------------|----------------------|--------------------------|-------------------------|
----------------------------|----------------------|--------------------------|-------------------------|


  Q    E  Q    Q    E     E  Q    Q    Q    E     W                   H        Q    Q     
--8----6--6------------|-----------------------|-------------------|---------------------|
---------------9----9--|--L--8----8---------6--|--L----------------|--2--------6----6----|
-----------------------|---------------8-------|-------------------|---------------------|
-----------------------|-----------------------|-------------------|---------------------|
-----------------------|-----------------------|-------------------|---------------------|
-----------------------|-----------------------|-------------------|---------------------|

                                                      Verse 2
                                     |-----3----|                                                       
  H        Q.     E      Q     Q     Q    Q     Q        Q     E  Q    Q    E     Q    E  Q    Q    E   
---------------------|--------------------8----10----|--11----10--6---------8--|--L----6---------------|
--8--------L------8--|--10----10----12---------------|-----------------8-------|----------6---------6--|
---------------------|-------------------------------|-------------------------|---------------8-------|
---------------------|-------------------------------|-------------------------|-----------------------|
---------------------|-------------------------------|-------------------------|-----------------------|
---------------------|-------------------------------|-------------------------|-----------------------|


  E  Q    Q.     E  E     Q    E  Q    Q.         Q     E  Q    Q    E     Q    E  Q    Q    E   
-----------------------|----------------------|--11----10--6---------8--|--L----6---------------|
--L--8-----------8--6--|--L-------------------|-----------------8-------|----------6---------6--|
----------8------------|-------8--7-----------|-------------------------|---------------8-------|
-----------------------|---------------8------|-------------------------|-----------------------|
-----------------------|----------------------|-------------------------|-----------------------|
-----------------------|----------------------|-------------------------|-----------------------|


  E  Q    Q.     E  E     Q    E  Q.     E   E      Q     E   Q     Q     E     Q    E  H        E   
-----------------------|-----------------8--10--|--11----11--11----13----10--|--L----8--6-----------|
--L--8-----------8--6--|--L---------------------|----------------------------|-------------------8--|
----------8------------|-------8--7-------------|----------------------------|----------------------|
-----------------------|------------------------|----------------------------|----------------------|
-----------------------|------------------------|----------------------------|----------------------|
-----------------------|------------------------|----------------------------|----------------------|


  Q    E  Q    Q    E     H.           E   E      Q     E   Q     Q     E     Q    E  H        E   
--8----6--6------------|---------------8--10--|--11----11--11----13----10--|--L----8--6--------L--|
---------------6----8--|--L-------------------|----------------------------|----------------------|
-----------------------|----------------------|----------------------------|----------------------|
-----------------------|----------------------|----------------------------|----------------------|
-----------------------|----------------------|----------------------------|----------------------|
-----------------------|----------------------|----------------------------|----------------------|


   Q    E   Q    Q     E      Q.      E   Q    Q       Q    E  Q    Q    E     E  Q    Q    Q    E   
--------8--10---------11--|---L------11--10----6----|--8----6--6------------|-----------------------|
--12-------------8--------|-------------------------|---------------9----9--|--L--8----8---------6--|
--------------------------|-------------------------|-----------------------|---------------8-------|
--------------------------|-------------------------|-----------------------|-----------------------|
--------------------------|-------------------------|-----------------------|-----------------------|
--------------------------|-------------------------|-----------------------|-----------------------|


                                                                               |-----3----|     
  W                   H        Q    Q       H        Q.     E      Q     Q     Q    Q     Q     
-------------------|---------------------|---------------------|--------------------8----10----|
--L----------------|--2--------6----6----|--8--------L------8--|--10----10----12---------------|
-------------------|---------------------|---------------------|-------------------------------|
-------------------|---------------------|---------------------|-------------------------------|
-------------------|---------------------|---------------------|-------------------------------|
-------------------|---------------------|---------------------|-------------------------------|


Break; tempo steadily increases to 149 BMP, and then drops off again over the last six bars or so

  E  E   E  E  E  E   E  E      E  E   E  E   E  E   E  E      E  E   E  E   E  E   E  E   
--8------------8------------|--10------------10------------|--11------------11------------|
-----8------8-----8------8--|------8------8------8------8--|------8------8------8------8--|
--------10-----------10-----|---------10------------10-----|---------10------------10-----|
----------------------------|------------------------------|------------------------------|
----------------------------|------------------------------|------------------------------|
----------------------------|------------------------------|------------------------------|


   E   E   E   E   E   E   E   E     E  E   E  E  E  E   E  E      E  E   E  E   E  E   E  E   
--13--------------13--------------|--8------------8------------|--10------------10------------|
------10------10------10------10--|-----8------8-----8------8--|------8------8------8------8--|
----------10--------------10------|--------10-----------10-----|---------10------------10-----|
----------------------------------|----------------------------|------------------------------|
----------------------------------|----------------------------|------------------------------|
----------------------------------|----------------------------|------------------------------|


   E  E   E  E   E  E   E  E      E   E   E   E   E   E   E   E     E  E   E  E  E  E   E  E   
--11------------11------------|--13--------------13--------------|--8------------8------------|
------8------8------8------8--|------10------10------10------10--|-----8------8-----8------8--|
---------10------------10-----|----------10--------------10------|--------10-----------10-----|
------------------------------|----------------------------------|----------------------------|
------------------------------|----------------------------------|----------------------------|
------------------------------|----------------------------------|----------------------------|


   E  E   E  E   E  E   E  E      E  E   E  E   E  E   E  E      E   E   E   E   E   E   E   E   
--10------------10------------|--11------------11------------|--13--------------13--------------|
------8------8------8------8--|------8------8------8------8--|------10------10------10------10--|
---------10------------10-----|---------10------------10-----|----------10--------------10------|
------------------------------|------------------------------|----------------------------------|
------------------------------|------------------------------|----------------------------------|
------------------------------|------------------------------|----------------------------------|


  E  E   E  E  E  E   E  E      E  E   E  E   E  E   E  E      E  E   E  E   E  E   E  E   
--8------------8------------|--10------------10------------|--11------------11------------|
-----8------8-----8------8--|------8------8------8------8--|------8------8------8------8--|
--------10-----------10-----|---------10------------10-----|---------10------------10-----|
----------------------------|------------------------------|------------------------------|
----------------------------|------------------------------|------------------------------|
----------------------------|------------------------------|------------------------------|


   E   E   E   E   E   E   E   E     E  E   E  E  E  E   E  E      E  E   E  E   E  E   E  E   
--13--------------13--------------|--8------------8------------|--10------------10------------|
------10------10------10------10--|-----8------8-----8------8--|------8------8------8------8--|
----------10--------------10------|--------10-----------10-----|---------10------------10-----|
----------------------------------|----------------------------|------------------------------|
----------------------------------|----------------------------|------------------------------|
----------------------------------|----------------------------|------------------------------|


   E  E   E  E   E  E   E  E      E   E   E   E   E   E   E   E     E  E   E  E  E  E   E  E   
--11------------11------------|--13--------------13--------------|--8------------8------------|
------8------8------8------8--|------10------10------10------10--|-----8------8-----8------8--|
---------10------------10-----|----------10--------------10------|--------10-----------10-----|
------------------------------|----------------------------------|----------------------------|
------------------------------|----------------------------------|----------------------------|
------------------------------|----------------------------------|----------------------------|


   E  E   E  E   E  E   E  E      E  E   E  E   E  E   E  E      E   E   E   E   E   E   E   E   
--10------------10------------|--11------------11------------|--13--------------13--------------|
------8------8------8------8--|------8------8------8------8--|------10------10------10------10--|
---------10------------10-----|---------10------------10-----|----------10--------------10------|
------------------------------|------------------------------|----------------------------------|
------------------------------|------------------------------|----------------------------------|
------------------------------|------------------------------|----------------------------------|


  E  E   E  E  E  E   E  E      E  E   E  E   E  E   E  E      E  E   E  E   E  E   E  E   
--8------------8------------|--10------------10------------|--11------------11------------|
-----8------8-----8------8--|------8------8------8------8--|------8------8------8------8--|
--------10-----------10-----|---------10------------10-----|---------10------------10-----|
----------------------------|------------------------------|------------------------------|
----------------------------|------------------------------|------------------------------|
----------------------------|------------------------------|------------------------------|


   E   E   E   E   E   E   E   E     E  E   E  E  E  E   E  E      E  E   E  E   E  E   E  E   
--13--------------13--------------|--8------------8------------|--10------------10------------|
------10------10------10------10--|-----8------8-----8------8--|------8------8------8------8--|
----------10--------------10------|--------10-----------10-----|---------10------------10-----|
----------------------------------|----------------------------|------------------------------|
----------------------------------|----------------------------|------------------------------|
----------------------------------|----------------------------|------------------------------|


   E  E   E  E   E  E   E  E      E   E   E   E   E   E   E   E      E  E   E  E   E  E   E  E   
--11------------11------------|--13--------------13--------------|--11------------11------------|
------8------8------8------8--|------10------10------10------10--|------8------8------8------8--|
---------10------------10-----|----------10--------------10------|---------10------------10-----|
------------------------------|----------------------------------|------------------------------|
------------------------------|----------------------------------|------------------------------|
------------------------------|----------------------------------|------------------------------|


   E   E   E   E   E   E   E   E      E  E   E  E   E  E   E  E      E   E   E   E   E   E   E   E   
--13--------------13--------------|--11------------11------------|--13--------------13--------------|
------10------10------10------10--|------8------8------8------8--|------10------10------10------10--|
----------10--------------10------|---------10------------10-----|----------10--------------10------|
----------------------------------|------------------------------|----------------------------------|
----------------------------------|------------------------------|----------------------------------|
----------------------------------|------------------------------|----------------------------------|

                                                                  Verse 3; key change

   E  E   E  E   E  E   E  E      E   E   E   E   E   E   E   E      Q     E   Q     Q     E   
--11------------11------------|--13--------------10--------------|--18----17--13----------15--|
------8------8------8------8--|------10------10------10------10--|------------------15--------|
---------10------------10-----|----------10--------------14------|----------------------------|
------------------------------|----------------------------------|----------------------------|
------------------------------|----------------------------------|----------------------------|
------------------------------|----------------------------------|----------------------------|


  Q     E   Q     Q     E     E   Q     Q.      E   E     Q     E   Q     Q.      
--L----13------------------|---------------------------|-------------------------|
-----------13----------13--|--L--15------------15--13--|--L----------------------|
-----------------15--------|-----------15--------------|-------15--14------------|
---------------------------|---------------------------|-----------------15------|
---------------------------|---------------------------|-------------------------|
---------------------------|---------------------------|-------------------------|


   Q     E   Q     Q     E     Q     E   Q     Q     E     E   Q     Q.      E   E   
--18----17--13----------15--|--L----13------------------|---------------------------|
------------------15--------|-----------13----------13--|--L--15------------15--13--|
----------------------------|-----------------15--------|-----------15--------------|
----------------------------|---------------------------|---------------------------|
----------------------------|---------------------------|---------------------------|
----------------------------|---------------------------|---------------------------|


  Q     E   Q.      E   E      Q     E   Q     Q     E     Q     E   H         E   
-------------------15--17--|--18----18--18----20----17--|--L----15--13------------|
--L------------------------|----------------------------|---------------------15--|
-------15--14--------------|----------------------------|-------------------------|
---------------------------|----------------------------|-------------------------|
---------------------------|----------------------------|-------------------------|
---------------------------|----------------------------|-------------------------|


   Q     E   Q     Q     E     H.            E   E      Q     E   Q     Q     E     Q     E   H        E   
--15----13--13--------------|---------------15--17--|--18----18--18----20----17--|--L----15--13--------L--|
------------------13----15--|--L--------------------|----------------------------|------------------------|
----------------------------|-----------------------|----------------------------|------------------------|
----------------------------|-----------------------|----------------------------|------------------------|
----------------------------|-----------------------|----------------------------|------------------------|
----------------------------|-----------------------|----------------------------|------------------------|


   Q     E   Q     Q     E      Q.      E   Q     Q        Q     E   Q     Q     E   
--14----15--17----------18--|---L------18--17----13----|--15----13--13--------------|
------------------15--------|--------------------------|------------------16----16--|
----------------------------|--------------------------|----------------------------|
----------------------------|--------------------------|----------------------------|
----------------------------|--------------------------|----------------------------|
----------------------------|--------------------------|----------------------------|


   E   Q     Q     Q     E      W                   H          Q      Q        H        Q.      E   
----------------------------|--------------------|-------------------------|-----------------------|
---L--15----15----------13--|---L----------------|--9--------(13)----13----|--15--------L----------|
------------------15--------|--------------------|-------------------------|-------------------15--|
----------------------------|--------------------|-------------------------|-----------------------|
----------------------------|--------------------|-------------------------|-----------------------|
----------------------------|--------------------|-------------------------|-----------------------|

                                Verse 4; back to normal
               |-----3----|                                                                               
   Q     Q     Q    Q     Q        Q     E  Q    Q    E     Q    E  Q    Q    E     E  Q    Q.     E  E   
--------------------8----10----|--11----10--6---------8--|--L----6---------------|-----------------------|
--13----------12---------------|-----------------8-------|----------6---------6--|--L--8-----------8--6--|
--------14---------------------|-------------------------|---------------8-------|----------8------------|
-------------------------------|-------------------------|-----------------------|-----------------------|
-------------------------------|-------------------------|-----------------------|-----------------------|
-------------------------------|-------------------------|-----------------------|-----------------------|


  Q    E  Q    Q.         Q     E  Q    Q    E     Q    E  Q    Q    E     E  Q    Q.     E  E   
----------------------|--11----10--6---------8--|--L----6---------------|-----------------------|
--L-------------------|-----------------8-------|----------6---------6--|--L--8-----------8--6--|
-------8--7-----------|-------------------------|---------------8-------|----------8------------|
---------------8------|-------------------------|-----------------------|-----------------------|
----------------------|-------------------------|-----------------------|-----------------------|
----------------------|-------------------------|-----------------------|-----------------------|


  Q    E  Q.     E   E      Q     E   Q     Q     E     Q    E  H        E     Q    E  Q    Q    E   
-----------------8--10--|--11----11--11----13----10--|--L----8--6-----------|--8----6--6------------|
--L---------------------|----------------------------|-------------------8--|---------------6----8--|
-------8--7-------------|----------------------------|----------------------|-----------------------|
------------------------|----------------------------|----------------------|-----------------------|
------------------------|----------------------------|----------------------|-----------------------|
------------------------|----------------------------|----------------------|-----------------------|


  H.           E   E      Q     E   Q     Q     E     Q    E  H        E      Q    E   Q    Q     E   
---------------8--10--|--11----11--11----13----10--|--L----8--6--------L--|--------8--10---------11--|
--L-------------------|----------------------------|----------------------|--12-------------8--------|
----------------------|----------------------------|----------------------|--------------------------|
----------------------|----------------------------|----------------------|--------------------------|
----------------------|----------------------------|----------------------|--------------------------|
----------------------|----------------------------|----------------------|--------------------------|


   Q.      E   Q    Q       Q    E  Q    Q    E     E  Q    Q    Q    E     W                 
---L------11--10----6----|--8----6--6------------|-----------------------|-------------------|
-------------------------|---------------9----9--|--L--8----8---------6--|--L----------------|
-------------------------|-----------------------|---------------8-------|-------------------|
-------------------------|-----------------------|-----------------------|-------------------|
-------------------------|-----------------------|-----------------------|-------------------|
-------------------------|-----------------------|-----------------------|-------------------|


                                                           |-----3----|                         
  H        Q    Q       H        Q.     E      Q     Q     Q    Q     Q       W                 
---------------------|---------------------|--------------------8----10----|--8----------------|
--2--------6----6----|--8--------L------8--|--10----10----12---------------|-------------------|
---------------------|---------------------|-------------------------------|-------------------|
---------------------|---------------------|-------------------------------|-------------------|
---------------------|---------------------|-------------------------------|-------------------|
---------------------|---------------------|-------------------------------|-------------------|




I also just realised Guitar Pro has an export to ASCII so no more meticulously crafted text files from me
anymore!



        
Comments

No comments yet