Gametabs
Home
Tabs
Random

Title Screen

Average rating: 5.000

1 ratings

Composer:

Tabber:

Style:

Instrument:

Created: June 07, 2008 at 12:00 AM

            Age of Empires I: Title

E----------------|
B|-6------6------|
G|-5------5------|
D|-3------3------|
A|---------------|
E|---1------1----|
					     First riff here ** 
E|---------------------------|----------8--------------------||----------------
B|--------11---8---8-9-8-----|-9----8-9----9----8-9-8--------||-9-------8------
G|-8---10----------------10--|---------------------------10--||----------------
D|---------------------------|-------------------------------||----------------
A|---------------------------|-------------------------------||----------------
E|---------------------------|-------------------------------||----------------
							     **

        
Comments

@Gnome.Punter (October 04, 2008 at 4:03 PM)

lmfao


@Ptushka (October 03, 2018 at 8:37 AM)

so often in childhood I played this game, that the whole song was sung by the motive) it is unforgettable)