Gametabs
Home
Tabs
Random

Main Theme

Average rating: 5.000

6 ratings

Composer:

Tabber:

Style:

Instrument:

Created: March 09, 2013 at 12:00 AM

                                        Main Theme
                                
Age of Empires II
David Rippy, Stephen Rippy, Kevin McMullan
Arranged for guitar by Basisti94 (Miro Laaksonen)
8.3.2013


Tempo ~ 120

     ^                                              ^                        
                                                         |--3--|             
     H.           Q       Q.     S S E  E  E  E     Q    E  E  E  Q    Q     
E||--------------------|----------------1--0-----|--0-----------------------|
B||--------------------|--3-------------------3--|--------------------------|
G||--2-----------------|-------------------------|--0------------------2----|
D||--2-----------------|--0------0-0-0-----0-----|--0----0--0--0--0---------|
A||--0------------0----|-------------------------|---------------------0----|
E||--------------------|-------------------------|--------------------------|


  Q.     S S E  E  E  E     H.           Q       Q.     S S E  E  E  E   
----------------1--0-----|--3-----------------|----------------1--0-----|
--3-------------------3--|--------------------|--3-------------------3--|
-------------------------|--0------------2----|-------------------------|
--0------0-0-0-----0-----|---------------2----|--0------0-0-0-----0-----|
-------------------------|---------------0----|-------------------------|
-------------------------|--3-----------------|-------------------------|


  ^                          ^                       ^                    
       |--3--|                                                            
  Q    E  E  E  Q    Q       H        E  E  E  E     Q.     E  Q    Q     
--0-----------------------|--0--------L--1--0-----|----------------------|
--------------------------|--------------------1--|--3-------------------|
--0-----------------------|--0--------L-----------|--2-------------------|
--0----0--0--0--0----0----|--2--------L-----------|--0------0--0----0----|
--------------------------|--3--------------------|----------------------|
--------------------------|-----------------------|----------------------|


       |--3--|                                    
  Q    E  E  E  Q    Q       Q    Q    Q    Q     
--3----2--3--5--6----5----|--3-------------------|
--------------------------|-------4----3---------|
--------------------------|----------------------|
--------------------------|-----------------5----|
--------------------------|----------------------|
--3-------------3----3----|--3---------3---------|


  |--3-|  |--3--|                                        
  Q    E  E  E  E  Q    E.  T  T    Q    Q    Q    Q     
--3----3--3--5--6--8----6---5h-6-|--5---------3---------|
---------------------------------|-------7--------------|
-------------------0-------------|----------------------|
---------------------------------|--0-------------------|
---------------------------------|-------3----1---------|
--3------------------------------|-----------------3----|


  |--3--|  |--3-|  |---3---|  |--3-|                          
  E  E  E  Q    E  E   E   E  Q    E     Q    Q    Q    Q     
--3----------------5h--6p--5--3-------|----------------------|
-----3--3--3----6------------------4--|--3----4----3---------|
--------------------------------------|----------------------|
--------------------------------------|-----------------5----|
--------------------------------------|----------------------|
--3----------------3----------3-------|--3---------3---------|


  |--3-|  |--3--|                                        
  Q    E  E  E  E  Q    E.  T  T    Q    Q    Q    Q     
--3----3--3--5--6--8----6---5h-6-|--5---------3---------|
---------------------------------|-------7---------5----|
-------------------0-------------|-----------------4----|
---------------------------------|--0--------------2----|
---------------------------------|-------3----1---------|
--3------------------------------|-----------------0----|


  ^                       ^                    ^                     
  H        E  E  E  E     H.           Q       H        E  E  E  E   
--5--------L--8--7--5--|--7-----------------|--5--------L--8--7--5--|
--5--------L-----------|--8------------5----|--5--------L-----------|
--5--------L-----------|--7------------4----|--5--------L-----------|
-----------------------|---------------2----|-----------------------|
--0--------------------|--L-----------------|--0--------------------|
-----------------------|--------------------|-----------------------|


                                                       |--3--|             
   H.           Q       Q.     S S E  E  E  E     Q    E  E  E  Q    Q     
--10-----------------|--5-------------8--7--5--|--7-----------------------|
----------------5----|-------------------------|--------------------------|
---0------------4----|--5----------------------|--------------------------|
----------------2----|-------------------------|--------------------------|
---------------------|--0------0-0-0-----0-----|--0----0--0--0--0----0----|
---------------------|-------------------------|--------------------------|


  H        E  E  E  E     Q.     E  Q    Q       E  Q    S S E  E  E  E   
--7--------L--8--7--3--|--5-------------------|--------------------------|
-----------------------|----------------------|--------------------------|
-----------------------|--2-------------------|--------------------------|
-----------------------|----------------------|--0-------0-0-0-----0-----|
-----------------------|--0------0--0----0----|--0-------0-0-0-----0-----|
--3--------------------|----------------------|--------------------------|


        |--3--|                                          
  E  E  E  E  E  E  E  E  E     E  Q    S S E  E  E  E   
-----------------------------|--------------------------|
-----------------------------|--------------------------|
-----------------------------|--------------------------|
--0-----0--0--0--0-----0-----|--0-------0-0-0-----0-----|
--0-----0--0--0--0-----0-----|--0-------0-0-0-----0-----|
-----------------------------|--------------------------|


                                ^                  
        |--3--|                                    
  E  E  E  E  E  E  E  E  E     W                  
-----------------------------|-------------------||
-----------------------------|-------------------||
-----------------------------|--2----------------||
--0-----0--0--0--0-----0-----|--0----------------||
--0-----0--0--0--0-----0-----|--0----------------||
-----------------------------|-------------------||




Duration Legend
---------------
W - whole
H - half
Q - quarter
E - 8th
S - 16th
T - 32nd
X - 64th
. - note dotted
|-n-|  - n-tuplets


Tablature Legend
----------------
L - tied note
x - dead note
g - grace note
(n) - ghost note
> - accentuded note
NH - natural harmonic
AH - artificial harmonic
TH - tapped harmonic
SH - semi harmonic
PH - pitch harmonic
h - hammer on
p - pull off
b - bend
br - bendRelease
pb - preBend
pbr - preBendRelease
brb - bendReleaseBend
\n/ - tremolo bar dip
\n - tremolo bar dive
-/n - tremolo bar Release up
/n\ - tremolo bar inverted dip
/n - tremolo bar return
-\n - tremolo bar Release down
S - shift slide
s - legato slide
/ -  slide into from below or out of upwards
\ -  slide into from above or out of downwards
~ - vibrato
W - wide vibrato
tr - trill
TP - tremolo picking
T - tapping
S - slap
P - pop
< - fade in
^ - brush up
v - brush down

        
Comments

@MisterM2402 (March 09, 2013 at 10:20 PM)

A real lack of Age of Empires tabs on here - thanks for this, sounds great :D


@diralark (March 10, 2013 at 1:28 PM)

It sounds nice even if I prefer your arrangement detuned for a Dropped D tuning (then after a -5 semi-tone transposition), so the bass notes sound more "bass" well I guess today I envy of that, and no doubt another day I will prefer your tuning... This tune offers 2 possibilities, Like it ^^