Gametabs
Home
Tabs
Random

Level 1

Average rating: 5.000

1 ratings

Composer:

Tabber:

Style:

Instrument:

Created: September 30, 2007 at 12:00 AM

            Transcribed by Aaron Morison ([email protected])

Gtr I (E A D G B E)

  Q=224
 4/4
  Gtr I
  E E E E E E E E   E E E E Q  E E   E E E E Q  E E   E E E E E E E E
|-----------------|------------0---|----------------|-----------------|
|-----------------|----------------|----------------|-----------------|
|-----------------|-2--------------|----------------|-----------------|
|-------------3---|-----3----------|-3--------------|-3---3-----3-3-3-|
|---0---3-5-------|-------3--------|------------0-3-|-----------------|
|-1---------------|----------------|-------1--------|-------1---------|

  E E E E E E E E   E E +E  E E E E E   E E E E Q  E E   E E E E E E E E
|-0-------0-------|-0-----------------|----------------|-----------------|
|-----------------|-------------------|----------------|-----------------|
|-----------------|-------------------|----------------|-----------------|
|-----------------|-------------------|------------2-0-|-----------------|
|-----3-------3---|---5-(5)-4-3-------|-------3--------|-------3---1-0-1-|
|-----------------|---------------3---|-0--------------|-0---------------|

  E E E E E E E E   E E +E  E E E Q    E E E E Q  E E   E. S +S  E. E E E E
|-----------------|---------------0--|----------------|-------------------0-|
|-----------------|------------------|----------------|---------------------|
|-----------------|------------------|------------2---|---------------------|
|-----3-----------|------------------|----------------|-------------3-------|
|---------3-------|---0-(0)-0-0------|-------3------3-|----3-(3)-0----------|
|-1-----------1---|------------------|-1--------------|-1---------------1---|

  E E E E E E E E   E E +E  E E E E E   E E E E Q  E E   E E E E E E E E
|-0---0-------0---|-------------------|----------------|-----------------|
|-----------------|-------------------|----------------|-----------------|
|-----------------|-------------------|----------------|-----------------|
|-----------------|-------------------|------------2-0-|-----------------|
|---------3-------|---5-(5)-4-3-------|-------3--------|-------3---1-0-1-|
|-----------------|-3-------------3---|-3--------------|-3---------------|

  E E E E E E E E   E E E E E E E E   Q  E E +E  E E E   Q  E E +E  E E E
|-----------------|-----------------|------------------|------------------|
|-----------------|-----------------|------------------|------------------|
|-----------------|-----------------|------------------|------------------|
|-----3-----------|-----------------|--------------3---|--------------3---|
|---------3-------|---------0---0-3-|-0----3-(3)-----3-|-0----3-(3)-----3-|
|-1-----------1---|---1-0-1---1-----|------------------|------------------|

  Q  E E +E  E E E   Q  E E +E  E E E   E E E E E E Q    E E E E E E E E
|------------------|------------------|---------0------|---------0-------|
|------------------|------------------|----------------|-----------------|
|--------------1---|------------------|----------------|-------------3---|
|------0-(0)-----3-|------0-(0)-3-----|----------------|-----------------|
|-1----------------|-1------------5---|---0---3--------|---0---3---------|
|------------------|----------------6-|-3--------------|-3---------------|

  E E E E E E E E   Q  Q  Q  Q    E E E E Q  E E   E E E E E E E E
|-----0-0---------|-------------|----------------|-----------------|
|-----------------|-------------|----------------|-----------------|
|-2---------------|-------------|----------------|-----------------|
|-----------------|-------------|-3--------------|-3---3-----3-3-3-|
|---------------0-|-3--4--5-----|------------0-3-|-----------------|
|-----------1-----|-------------|-------1--------|-------1---------|

  E E E E E E E E   E E +E  E E E E E   E E E E Q  E E   E E E E E E E E
|-0-------0-------|-0-----------------|----------------|-----------------|
|-----------------|-------------------|----------------|-----------------|
|-----------------|-------------------|----------------|-----------------|
|-----------------|-------------------|------------2-0-|-----------------|
|-----3-------3---|---5-(5)-4-3-------|-------3--------|-------3---1-0-1-|
|-----------------|---------------3---|-0--------------|-0---------------|

  E E E E E E E E   E E +E  E E E Q    E E E E Q  E E   E. S +S  E. E E E E
|-----------------|---------------0--|----------------|-------------------0-|
|-----------------|------------------|----------------|---------------------|
|-----------------|------------------|------------2---|---------------------|
|-----3-----------|------------------|----------------|-------------3-------|
|---------3-------|---0-(0)-0-0------|-------3------3-|----3-(3)-0----------|
|-1-----------1---|------------------|-1--------------|-1---------------1---|

  E E E E E E E E   E E +E  E E E E E   E E E E Q  E E   E E E E E E E E
|-0---0-------0---|-------------------|----------------|-----------------|
|-----------------|-------------------|----------------|-----------------|
|-----------------|-------------------|----------------|-----------------|
|-----------------|-------------------|------------2-0-|-----------------|
|---------3-------|---5-(5)-4-3-------|-------3--------|-------3---1-0-1-|
|-----------------|-3-------------3---|-3--------------|-3---------------|

  E E E E E E E E   E E E E E E E E   Q  E E +E  E E E   Q  E E +E  E E E
|-----------------|-----------------|------------------|------------------|
|-----------------|-----------------|------------------|------------------|
|-----------------|-----------------|------------------|------------------|
|-----3-----------|-----------------|--------------3---|--------------3---|
|---------3-------|---------0---0-3-|-0----3-(3)-----3-|-0----3-(3)-----3-|
|-1-----------1---|---1-0-1---1-----|------------------|------------------|

  Q  E E +E  E E E   Q  E E +E  E E E   E E E E E E Q    E E E E E E E E
|------------------|------------------|---------0------|---------0-------|
|------------------|------------------|----------------|-----------------|
|--------------1---|------------------|----------------|-------------3---|
|------0-(0)-----3-|------0-(0)-3-----|----------------|-----------------|
|-1----------------|-1------------5---|---0---3--------|---0---3---------|
|------------------|----------------6-|-3--------------|-3---------------|

  E E E E E E E E   Q  Q  Q  Q
|-----0-0---------|-------------*|
|-----------------|-------------*|
|-2---------------|-------------*|
|-----------------|-------------*|
|---------------0-|-3--4--5-----*|

        
Comments

@goldsac (March 18, 2008 at 5:45 AM)

bass tab?


@JamesSprag (November 11, 2021 at 5:42 PM)

this is amazing melody