Gametabs
Home
Tabs
Random

Sensei's Theme

Average rating: 5.000

1 ratings

Composer:

Tabber:

Style:

Instrument:

Created: May 15, 2010 at 12:00 AM

            Sensei's theme
from Advance Wars
composed by Taishi Senda
arranged by trickypat
tabbed by trickypat
TablEdited by trickypat
date edited: 2010, May 10th

standard tuning, capo=1, bpm=110

v1.00
Fun tab, easier than Grit's theme. Repeat until you're tired or bored. Enjoy! 

Check http://www.youtube.com/watch?v=M7pYPh6mm2c for the real version.

    |       |       |       |          |       |       |       |          |       |       |       |         
E |----------------------------------||----------------0----------------|---------------------------------||
B |-----4-------4-------4-------4----|*--------0-------------0----------|---------------------------------*|
G |----------------------------------||----------------------------0----|-----------------------2---------||
D |----------------------------------||2--------------------------------|-4---------------4-----------4---||
A |-6-------6-----6---6---6-6--------|*---------------------------------|---------4-----------------------*|
E |----------------------------------||---------------------------------|---------------------------------||
 
  |       |       |       |        >1|       |       |       |        >2|       |       |       |         
||----------------0---------------||---------------------------------||----------------------------------|
|*--------0-------------0---------||---------------------------------*|----------------------------------|
||----------------------------0---||-----------------------2---------||----------------------------------|
||2---------------2---------------||-4---------------4-----------4---||-4--------------------------------|
|*--------2-------------2---------||---------4-------------0---------*|----------------------------------|
||0---------------------------3---||-2---------------2-----------2---||-2--------------------------------|
 
  |       |       |       |          |       |       |       |          |       |       |       |         
|----------------------------------|-----0----------------------------|----------------------------------|
|-----------------0-----------0----|-------------0--------------------|----------------------------------|
|-----------------------3----------|---------------------3-------2----|-0--------------------------------|
|---------2------------------------|----------------------------------|-------2-----2---------------0----|
|----------------------------------|----------------------------------|----------------------------------|
|-----0-------0-------0-------0----|-----2-------2-------2-------2----|-----0-------0-------0-------0----|
 
  |       |       |       |          |       |       |       |          |       |       |       |         
|-------------------0--------------|----------------------------------|-----0---------------2-------2----|
|---------------0-------0----------|-----------------0-----------0----|-------------0--------------------|
|---------2h3---------------2p0----|-----------------------3----------|----------------------------------|
|-2---2h5--------------------------|---------2------------------------|----------------------------------|
|----------------------------------|----------------------------------|----------------------------------|
|-----0-------0-------2-------2----|-----0-------0-------0-------0----|-----2-------2-------3-------3----|
 
  |       |       |       |          |       |       |       |         
|-2-----0-----0--------------------|-0---0-----------0----------------|
|-----------------------------3----|-------0-----------0--------------|
|----------------------------------|---------2-0---------2-0----------|
|----------------------------------|----------------------------------|
|----------------------------------|----------------------------------|
|-----0-------0-------0-------0----|-----0-------0-------2-------2----|

  |       |       |       |          |       |       |       |          |       |       |       |         
|----------------------------------|----------------------------------|----------------------------------|
|----------------------------------|----------------------------------|-----------------------0----------|
|----------------------------------|----------------------------------|-------------0---2-----------3----|
|---------0-------0-----0----------|-2--------------------------------|-----0---2------------------------|
|----------------------------------|-------------0-----------0--------|-2--------------------------------|
|-----0-------0-------0-------0----|-----2-------2-------3-------2----|-----0-------0-------0-------0----|
 
  |       |       |       |          |       |       |       |          |       |       |       |         
|----------------------------------||----------------------------0----|-------------3-------0-----------||
|---------0---0-3-----0---0-3------|*----------------0-----0----------|---------------------------------||
|-2---0-----2-----------2----------||------------------2--------------|---------------------------------||
|----------------------------------||------------2--------------------|---------------------------------||
|----------------------------------|*---------------------------------|---------------------------------||
|----------------------------------||----0-------0-------0-------0----|-----2-------2-------2-------2---||
 
>1|       |       |       |          |       |       |       |        >2|       |       |       |         
|-----------------------------0----|---------------------------------||-0-------0-------0-------0--------|
|-----------------0-----0----------|-----------------0---------------*|----------------------------------|
|-------------------2--------------|-------------------2---0---------||----------------------------------|
|-------------2--------------------|---------------------------4-----||----------------------------------|
|----------------------------------|---------------------------------*|----------------------------------|
|-----0-------0-------0-------0----|-----2-------2-------2-------2---||----------------------------------|
 
  |       |       |       |         
|-0---0-----------------0----------|
|-----------------4-4---0----------|
|-----------------4-4--------------|
|----------------------------------|
|----------------------------------|
|----------------------------------|
 
Created with TablEdit http://www.tabledit.com/

        
Comments

@BluePhoenix (December 25, 2010 at 5:53 AM)

i love this