Gametabs
Home
Tabs
Random

Sacrifices

Average rating: 5.000

2 ratings

Composer:

Tabber:

Style:

Instrument:

Created: June 11, 2010 at 12:00 AM

            ActRaiser - Sacrifices

Here's another ActRaiser song with a classical feel. This one is played almost
entirely over the 5th fret, other than one note which jumps up to 10 on the 1st
string. Check out my video if you need the timing. Enjoy.

e-----------------------------------------------------------------------------------
B-----------------------------------------------------------------------------------
G-7---5----------------------------------------7---5--------------------------------
D---------8--7-5-7-----5----------5----5-7---7---------8--7-5-7---5-----5-----------
A-------------------8-----7--8--5----8--------------------------8---7-8---7-5---5---
E-----------------------------------------------------------------------------8-----

e-------------------------------5----------6-5--------------------------------------
B-6--5---5-------8--6-5-6----------8-6-8--------6-8---------------------------------
G------7---6--------------7---------------------------------------------------------
D------------7--------------7-------------------------------------------------------
A-----------------------------------------------------------------------------------
E-----------------------------------------------------------------------------------

e-------------------------------5--6-8-10-6-----------------------------------------
B-6--5---5-------8--6-5-6-------------------8--6--5---5-----------------------------
G------7---6--------------7-------------------------7-------------------------------
D------------7--------------7-------------------------------------------------------
A-----------------------------------------------------------------------------------
E-----------------------------------------------------------------------------------

The song pretty much repeats from here. Play a 7 on the 4th string to wrap back
around to the beginning.
        
Comments

@Fredje (January 22, 2011 at 5:27 PM)

Thanks for uploading this tab! =D


@BacardiBreezer (July 26, 2012 at 9:09 AM)

Good tab, interestingly it is exactly how MegaDriver's cover is played