Ads

Crossing Field (Sword Art Online) Guitar Tab

Submitted: Mar 10, 2020 by E (Last updated: Mar 21, 2020)

0
Download | No audio :(
Game: Sword Art Online
Composer(s): Aoi Eir
Style: Fingerstyle

AutoScroll: Slow | Medium | Fast
-----------------------------------------------1--0--------------------------------------
-----------1--------3--1--3--1-----------------------1--3--3--3--3-----------------------
-----0--2-----------------------2--3--2--0--2--------------------------------0-----------
--3-----------3--2--------------------------------------------------3--2--3-----0--------
-----------------------------------------------------------------------------------------
-----------------------------------------------------------------------------------------


-----------------------------------------------------------------------------------------
--------------------------1--------------------------------------------------------1--1--
--------------0-----------------0--------------------------0--------------------0--------
--2--3--2--3-----0--0--3-----3-----0--3--2--0-----3--2--3-----0-----2--3--2--3-----------
-----------------------------------------------3-----------------3-----------------------
-----------------------------------------------------------------------------------------


-----------------------------------------------------------------------------------------
-----------------------------------------------------------0-----0--2--3-----------------
--------0-----0--------------0--2-----0-----------------------3-----------0-----0-----0--
--3--3-----3-----0--3--2--3--------3-----2-----0--3-----3--------------------3-----3-----
--------------------------------------------3--------2-----------------------------------
-----------------------------------------------------------------------------------------


-----------------------------------------------------------------------------------------
--1--------------------------1--------3--3--1--------------------------------------------
-----3--0--2-----0-----0--2--------------------2--3--2--0--3--2--0--2--0--2--0--2--0--2--
--------------3-----3-----------3--2-----------------------------------------------------
-----------------------------------------------------------------------------------------
-----------------------------------------------------------------------------------------


-----------------------------------------------------------------------------------------
--------3--------------1--------3--3--1--------------1--------------------------1--------
--3--2-----0-----0--2--------------------2--3--2--0-----2--0--2--0--2--0--2--0-----3--2--
--------------3-----------3--2-----------------------------------------------------------
-----------------------------------------------------------------------------------------
-----------------------------------------------------------------------------------------


----------------------------------------------------------------------------------------
--3--------------1----------------------------------------------------------------------
-----0-----0--------2--3--2--0--0--2-----------2--2--2--2--0----------0-----------------
--------3-----3-----------------------0--2--3-----------------3----------3--2-----0--0--
-------------------------------------------------------------------3-----------3--------
----------------------------------------------------------------------------------------


-----3--1-----3--1-----0--1--3--1-----3--1-----0--1--
-----------1--------1--------------1--------1--------
-----------------------------------------------------
--0--------------------------------------------------
-----------------------------------------------------
-----------------------------------------------------
Login or Register to remove this ad.