Login or Register to remove this ad.

Super Driver (Suzumiya Haruhi no Yuutsu) Guitar Tab

Submitted: Sep 18, 2009 by TrangOul (Last updated: Sep 19, 2009)

4.944445
Average: 4.9 (18 votes)
Download | Listen
Game: Suzumiya Haruhi no Yuutsu
Composer(s): Satoru Kousaki
Style: Arrangement, Fingerstyle

AutoScroll: Slow | Medium | Fast
'Super Driver'
from 'Suzumiya Haruhi no Yuutsu'
originally composed by Satoru Kousaki
arranged by Marcus Kasperski

Standard Tuning

     S S S E  S E.  S S S S S S S    S S S E  S E.  S S S S S S S  
E||--------3----3---------8---7---|--------3----3-----------------|
B||--1-0-1----1-------------------|--1-0-1----1-----1-0-1-1---3---|
G||--------0--------5-4-5---5---5-|--------0----------------0---0-|
D||-------------3---------5---5---|-------------3-----------------|
A||--3----------------------------|--3----------------------------|
E||-------------------------------|-----------------------3---3---|


  S S S E  S E.  S S S S S S S    S S S E  S Q.     E  E   
--------3----3---------8---7---|--------3----3------------|
--1-0-1----1-------------------|--1-0-1----1--------------|
--------0--------5-4-5---5---5-|--------0-----------------|
-------------3---------5---5---|-------------3------2--3--|
--3----------------------------|--3-----------------------|
-------------------------------|--------------------------|


  E  E  E  E  E  E  E  E     E  E  S S S S E  S S E  E   
--------------------------|-----------------------------|
--------1-----3--1--0--3--|--1-----L--------------------|
--0-----------------------|--------------------------2--|
--------------------------|----------2-0-2------L-------|
--3--3-----3--2--------2--|--0--0--0--------------3-----|
--------------------------|----------------3--3---------|


  E  E  S S E  E  E  E  E     E  S E  E  S E  S S E  E   
---------------------------|----------------------------|
---------------------------|----------------------------|
--0---------2--0-----------|----------0-----------------|
------------------------2--|--3--2-3-----0------L-2--3--|
--------3-3----------3-----|--0-------------------------|
--1--1---------0--0--------|---------------3--3---------|


  E  E  E  E  E  E  E  E     E  E  S S S S E  S S E  E   
--------------------------|-----------------------------|
--------1-----3--1--0--3--|--1-----L--------------------|
--0-----0-----0--------0--|--2-----------------------2--|
--------------------------|----------2-0-2------L-------|
--3--3-----3--2--------2--|--0--0--0--------------3-----|
--------------------------|----------------3--3---------|


  E  E  S S E  E  E  E  E     E  S E  E  S Q    S Q     
---------------------------|---------------------------|
------------------------1--|--1--0----0----------------|
--0---------2--0-----0-----|-------2-----0------L------|
---------------------------|--0------------------------|
--------3-3----------------|---------------------------|
--1--1---------0--0--------|---------------3------3----|


  S S S S S S S S S S E  E  S S    E  S S S S S S E  E  E  E   
----------------------0---------|---------------0----1--0-----|
--------0-----0-1---3----1--1-0-|-----1---0-1-3------------3--|
----0-2-----2-------------------|--2--------------------------|
--3---------------2---2---------|--0----0---------------------|
-------------------------0--0---|-----------------3-----------|
--1---1---3---3-----------------|---------3-------------3-----|


  S S S S S S S S S S E  E  S S    E  S S E  S S E  S S E  E   
--------------------------------|-----------------------------|
--------0-----0-0---1-3--1--1-0-|-------1------L------0----1--|
----0-2-----2-------------------|--2-------------2------------|
--3-----------------------------|--3--3---3--3---0--0---0--0--|
-------------------------0--0---|-----------------------------|
--1---1---3---3---4---4---------|-----------------------------|


  Q    S S S S Q    Q    S    E  E  E  E  E  S E.  E   
---------------------------|--0--0--0--0--0-----------|
--1----L-0-1-3-----------L-|-----------------3-3------|
--0------------------------|--0--0--0--0--0--0-0------|
---------------------------|-----------------------0--|
---------------------------|--------------------------|
--3----3-------3----3------|--3--3--3--3--3--3-3------|


  E  E  E  S S S S S S S S S S    E  E  E  S S S S E  E  E   
-----------------0-------0-----|-----------------0----------|
-----1--0--1-3-------3-----3-1-|--0-----0--1-3-----------1--|
--0--0-----0-------0-------0---|-----2-----2-------2--2--2--|
-------------------------------|----------------------------|
--3-----3------3-------3-------|--0-----0------0------0-----|
-------------------------------|----------------------------|


  E  E  E  E  S S S E  S S S    E  E  E  E  S E  E.  E   
-----------------------------|--------------0-----------|
--0--------------------0---1-|--L-------------3--3------|
--0-----------0-0---2--0---2-|-----------2--0----0------|
-----------------------------|-----------------------0--|
-----------------------------|--------------------------|
--0--0--0--0------0------0---|--1--1--1-----3----3------|


  E  E  E  S S S S S S S S S S    E  E  E  S S S S E  E  E   
-----------------0-------0-----|-----------------0----------|
-----1--0--1-3-------3-----3-1-|--0-----0--1-3-----------1--|
--0--0-----0-------0-------0---|-----2-----2-------2--2--2--|
-------------------------------|----------------------------|
--3-----3------3-------3-------|--0-----0------0------0-----|
-------------------------------|----------------------------|


  E  E  E  E  S S S E  S E     E  E  E  E  S S S E.  E   
----------------------------|--------------0------------|
--0--------------------0----|--1-------------3-3-3------|
--0-----------0-0---2--0----|--2--------2--0-----0------|
----------------------------|---------------------------|
----------------------------|---------------------------|
--0--0--0--0------0------0--|--1--1--1-----3-----3---3--|


  S S E  S S S S S S E  E  S S    E  S S S S S S E  E  E  E   
---------------0---1-0---------|---------------0----1--0-----|
----0-1--0-1-3----------1--1-0-|-----1---0-1-3------------3--|
--2----------------------------|--2--------------------------|
--3---3----------2---2---------|--3----3---------------------|
------------------------0--0---|-----------------3-----------|
---------3---3-----------------|---------3-------------3-----|


  S S E  S S S S S S E  E  S S    E  S S S S S S E  E  E  E   
---------------0---1-0---------|-----------------------------|
----0-1--0-1-3----------1--1-0-|-----1---0-1-3-1----1-----0--|
--2----------------------------|--2-----------------0-----0--|
--3---3----------2---2---------|--0----0---------------------|
------------------------0--0---|-----------------3-----------|
---------3---3-----------------|---------3-------------3-----|


  S S E  S S S S S S E  E  S S    E  S S S S S S E  E  E  E   
---------------0---1-0---------|---------------0----1--0-----|
----0-1--0-1-3----------1--1-0-|-----1---0-1-3------------3--|
--2----------------------------|--2--------------------------|
--3---3----------2---2---------|--3----3---------------------|
------------------------0--0---|-----------------3-----------|
---------3---3-----------------|---------3-------------3-----|


  S S E  S S S S S S E  E  S S    E  S S S E  E  S S S Q    S   
---------------0---1-0---------|-----1---0--------------------||
----0-1--0-1-3----------1--1-0-|-----------3--1-------------L-||
--2----------------------------|--2---------------------------||
--3---3----------2---2---------|--0----0---------3-2-0--------||
------------------------0--0---|--------------3--------3------||
---------3---3-----------------|---------3--------------------||




Duration Legend
---------------
Q - quarter
E - 8th
S - 16th
. - note dotted


Tablature Legend
----------------
L - tied note
Login or Register to remove this ad.

8 comments on Super Driver

Oh My!

Oh My!

Uh..

SalemJake said

Oh My!

Is that good or bad? :P

ZOMG IS SUPER

ZOMG IS SUPER DRIVER

Excellent, it's extremely loyal to the song, more than any acoustic arrangement I've ever seen. It's one of those arrangements where once you get started, you don't even have to look at the tab anymore, cause it's just so natural. Nice.

TrangOul said SalemJake

TrangOul said

SalemJake said

Oh My!

Is that good or bad? :P

It's super fantastique

Thumbs up =)

5

Thumbs up =)

Mikuru no Kokoro

5

Could you please tab this? http://www.youtube.com/watch?v=zw5a-9Ev7nk&feature=PlayList&p=FD64C4A64D...

It's mikuru no kokoro from the melancholy of haruhi suzumiya.

ThX~

The refrain is like.. super

5

The refrain is like.. super much fun to play <3

I've loved this tab for years

5

Great job on the arrangement.