Ads

SOS Nara Daijoubu (Suzumiya Haruhi no Yuutsu) Guitar Tab

Submitted: Nov 13, 2013 by corntastic

3
Average: 3 (2 votes)
Download | Listen
Game: Suzumiya Haruhi no Yuutsu
Composer(s): Satoru Kousaki
Style: Transcription

This song is also called The SOS Will Be Fine

AutoScroll: Slow | Medium | Fast
SOS Nara Daijoubu
Suzumiya Haruhi no Yuutsu
Satoru Kousaki , Aya Hirano
corntastic
10 11 2013


e-------------------------------------------------------------------------
B-----7--7--7-6--7--6--------------------------7-6--7--6------------------
G--6-------------------8--8--6-6----6--8----8-------------8--8--6-6-------
D-------------------------------------------------------------------------
A-------------------------------------------------------------------------
E-------------------------------------------------------------------------

e-------------------------------------------------------------------------
B----------7--6----------------9--7--------7----------7----7--6-----------
G--8----8--------------6----6-------------------8--8----------------------
D-------------------------------------------------------------------------
A-------------------------------------------------------------------------
E-------------------------------------------------------------------------

e-------------------------------------------------------------------------
B-----7--7--7-6--7--6------------------------7-6--7--6--------------------
G--6-------------------8--8--6----6--8----8-------------8--8--6-6---------
D-------------------------------------------------------------------------
A-------------------------------------------------------------------------
E-------------------------------------------------------------------------

e-------------------------------------------------------------------------
B----------7--6----------------9--7-----------7--7--7--7-6---------6--7---
G--8----8--------------6----6--------------6-----------------8--8---------
D-------------------------------------------------------------------------
A-------------------------------------------------------------------------
E-------------------------------------------------------------------------

______________________________________________________________________________________


e-------------------------------------------------------------------------
B--7--7--7--10--9--7-7----7--7--7--10--9--7-------------------------------
G-------------------------------------------------------------------------
D-------------------------------------------------------------------------
A-------------------------------------------------------------------------
E-------------------------------------------------------------------------

e-------------------------------------------------------------------------
B--------7--------------7-------------------------------------------------
G--8--6-----------8--6----------------------------------------------------
D-------------------------------------------------------------------------
A-------------------------------------------------------------------------
E-------------------------------------------------------------------------

e-------------------------------------------------------------------------
B--7--7--7--10--9--7-7----7--7--7--10--9--7--6--7--9----------------------
G-------------------------------------------------------------------------
D-------------------------------------------------------------------------
A-------------------------------------------------------------------------
E-------------------------------------------------------------------------

e-------------------------------------------------------------------------
B--10----9----7----9------------------------------------------------------
G-------------------------------------------------------------------------
D-------------------------------------------------------------------------
A-------------------------------------------------------------------------
E-------------------------------------------------------------------------

______________________________________________________________________________________


e--7--7--6--7--6-----------6--7--6----------------------------------------
B-----------------9--7--9-----------9--7----------------------------------
G-------------------------------------------------------------------------
D-------------------------------------------------------------------------
A-------------------------------------------------------------------------
E-------------------------------------------------------------------------

e--7--7--6--7--6-----------6----------------------------------------------
B-----------------9--7--9-------------------------------------------------
G-------------------------------------------------------------------------
D-------------------------------------------------------------------------
A-------------------------------------------------------------------------
E-------------------------------------------------------------------------

e--7--7--6--7--6-----------6--7--6----------------------------------------
B-----------------9--7--9-----------9--8----------------------------------
G-------------------------------------------------------------------------
D-------------------------------------------------------------------------
A-------------------------------------------------------------------------
E-------------------------------------------------------------------------

e--6--7-------7--6--------------------------------------------------------
B--------7----------9--7--6--7--------------------------------------------
G-------------------------------------------------------------------------
D-------------------------------------------------------------------------
A-------------------------------------------------------------------------
E-------------------------------------------------------------------------

______________________________________________________________________________________


e-------------------------------------------------------------------------
B-----7--7--7-6--7--6--------------------------7-6--7--6------------------
G--6-------------------8--8--6-6----6--8----8-------------8--8--6-6-------
D-------------------------------------------------------------------------
A-------------------------------------------------------------------------
E-------------------------------------------------------------------------

e-------------------------------------------------------------------------
B----------7--6----------------9--7-----------7--7--7--7--6--------6--7---
G--8----8--------------6----6--------------6----------------8--8----------
D-------------------------------------------------------------------------
A-------------------------------------------------------------------------
E-------------------------------------------------------------------------

______________________________________________________________________________________


e-------------------------------------------------------------------------
B--7--7--7--10--9--7-7----7--7--7--10--9--7-7-----------------------------
G-------------------------------------------------------------------------
D-------------------------------------------------------------------------
A-------------------------------------------------------------------------
E-------------------------------------------------------------------------

e-------------------------------------------------------------------------
B--------7--------------7-------------------------------------------------
G--8--6-----------8--6----------------------------------------------------
D-------------------------------------------------------------------------
A-------------------------------------------------------------------------
E-------------------------------------------------------------------------

e-------------------------------------------------------------------------
B--7--7--7--10--9--7----7--7--7--10--9--7--6--7--9------------------------
G-------------------------------------------------------------------------
D-------------------------------------------------------------------------
A-------------------------------------------------------------------------
E-------------------------------------------------------------------------

e-------------------------------------------------------------------------
B--10----9----7----9------------------------------------------------------
G-------------------------------------------------------------------------
D-------------------------------------------------------------------------
A-------------------------------------------------------------------------
E-------------------------------------------------------------------------

______________________________________________________________________________________


e--7--7--6--7--6-----------6--7--6----------------------------------------
B-----------------9--7--9-----------9--7----------------------------------
G-------------------------------------------------------------------------
D-------------------------------------------------------------------------
A-------------------------------------------------------------------------
E-------------------------------------------------------------------------

e--7--7--6--7--6-----------6----------------------------------------------
B-----------------9--7--9-------------------------------------------------
G-------------------------------------------------------------------------
D-------------------------------------------------------------------------
A-------------------------------------------------------------------------
E-------------------------------------------------------------------------

e--7--7--6--7--6-----------6--7--6----------------------------------------
B-----------------9--7--9-----------9--8----------------------------------
G-------------------------------------------------------------------------
D-------------------------------------------------------------------------
A-------------------------------------------------------------------------
E-------------------------------------------------------------------------

e--6--7-------7--6--------------------------------------------------------
B--------7----------9--7--6--7--------------------------------------------
G-------------------------------------------------------------------------
D-------------------------------------------------------------------------
A-------------------------------------------------------------------------
E-------------------------------------------------------------------------

______________________________________________________________________________________ x 3
Login or Register to remove this ad.