Yasashii Boukyaku -sincerity- (Suzumiya Haruhi no Shoushitsu) Guitar Tab

Submitted: Apr 20, 2014 by hslesperance

5
Average: 5 (1 vote)
Download | Listen
Game: Suzumiya Haruhi no Shoushitsu
Composer(s): Kakeru Ishihama, Keigo Hoashi, Satoru KĊsaki, Ryuichi Takada, Masumi Ito
Style: Arrangement, Fingerstyle

This song is also called Tender Oblivion

AutoScroll: Slow | Medium | Fast
Yasashii Boukyaku -sincerity-
The Disappearance of Haruhi Suzumiya
Composed by Masumi Ito
Tabbed by hslesperance
4/20/14

Standard Tuning


   E   E    Q     Q      E   E    H       E  E   Q    Q     E  E   H
|---------------------|-----------------|-----------------|--------------|
|----------13---(13)--|----------13-----|-----------------|--------------|
|-----12--(12)---12---|-----13--(13)----|--------5---(5)--|--------5-----|
|-10-(10)-(10)--(10)--|-10-(10)-(10)----|----5--(5)---5---|----6--(6)----|
|---------------------|-----------------|-3-(3)-(3)--(3)--|-3-(3)-(3)----|
|---------------------|-----------------|-----------------|--------------|


  H      Q    H      Q    Q   Q.    E   Q  H
|-0------3--|-5------5--|-3---------3-|-0----------|
|-----1-----|-----6-----|-----3-------|------------|
|---0-------|---5-------|-------------|----0-------|
|-----------|-3---------|-----0-------|------------|
|-3---------|-----------|---2---------|-3-----3-2--|
|-----------|-----------|-3-----------|------------|
  E E Q  Q    E E Q  Q    E E Q   Q     Q  Q  E E


  H      Q    Q   H      Q.     E  E E   Q  H
|--------0--|----------|---------------|-----------|
|-1---------|-3--------|-1------1--0-1-|-3---------|
|-----2-----|-----2----|------2--------|-----------|
|---2-------|-0--------|----3----------|-----------|
|-0---------|----------|---------------|----0--2---|
|-----------|----------|-3-------------|-3---------|
  E E Q  Q    H.         E  E E Q.       Q  Q  Q


  H      Q    H      Q    Q   E Q.      Q   Q   E E
|-0------3--|-5------5--|-3---6s7-----|-0-------0----|
|-----1-----|-----6-----|-------------|-------1---3--|
|---0-------|---5-------|-------------|-----2--------|
|-----------|-3---------|-----0-------|---2----------|
|-3---------|-----------|---2---------|-0------------|
|-----------|-----------|-3-----------|--------------|
  E E Q  Q    E E Q  Q    E E Q    Q    E E E E Q


  H     Q    Q   Q  Q    Q.    Q.       W
|-------0--|-----------|--------------|-----------|
|-1--------|-3---1-----|-1------------|-----------|
|----------|-----------|------------0-|-----------|
|----3-----|-----------|-----2----3---|-2--(2)----|
|----------|-----------|-3------------|-----3-----|
|-1--------|-3---------|--------------|-----------|
  Q  Q  Q    H.          Q   Q    E E   Q   H


  E E E  E  E  E    H.
|----------13-15-|-12-----|
|-------13-------|--------|
|-----5----------|--------|
|---5------------|--------|
|-3--------------|--------|
|----------------|--------|


  H       Q    H      Q    Q   Q.    E   Q   H
|-0-------3--|-5------5--|-3---------3-|-0-----------|
|------------|-----------|-----3-------|-------------|
|------------|-----------|-------------|-------------|
|-------0-2--|-3---3-----|-5---5-------|-------------|
|-----3------|---3----3--|---5-----5---|-----3--3-2--|
|---3--------|-----------|-------------|---3---------|
  E E E E Q    E E Q  Q    E E Q   Q     E E Q  E E


  H      Q    Q   H       Q.     E E E   Q  H
|--------0--|-----------|--------------|-----------|
|-1---------|-3---------|-1------1-0-1-|-3---------|
|-----------|-----2-----|------0-------|-0-----0---|
|-----------|-0---0-----|----3---------|----0------|
|-0---0-----|---0----0--|--------------|-----------|
|---0----0--|-----------|--------------|-----------|
  E E Q  Q    E E Q  Q    E  E Q   Q     Q  Q  Q


  H       Q    H      Q    Q   E Q.      Q  Q  E E
|-0-------3--|-5------5--|-3---6s7-----|-0-----0----|
|------------|-----------|-------------|---------3--|
|------------|-----------|-------------|-2-----0----|
|-------0-2--|-3---3-----|-2---2-------|----2-------|
|-----3------|---3----3--|---2---------|------------|
|---3--------|-----------|-------------|------------|
  E E E E Q    E E Q  Q    E E Q    Q    Q  Q  Q


  H     Q    Q   Q  Q    Q.     Q.       H.
|-------0--|-----------|-----------1-3-|-0-----|
|-1--------|-3---1-----|-1------1------|-------|
|----------|-----------|------0--------|-------|
|-3--0-----|-----------|----2----------|-------|
|----------|-----------|-3-------------|-------|
|----------|-3---------|---------------|-------|
  Q  H       H.          E  E E E  E E


  Q   Q   Q    Q   Q.     E   Q   Q  Q    Q   H
|-----5---5--|-5---3------1-|-3---0-----|------------|
|------------|--------------|--------3--|-1----------|
|-------0-2--|--------0-2---|-----------|-----2--0---|
|-----3------|-----3--------|-----2-----|---2--------|
|---3--------|---3----------|---2-------|-0----------|
|-1----------|-1------------|-0---------|------------|
  E E E E Q    E E E  E Q     E E H       E E Q  Q


  H    E E   Q  Q.    E   H         Q       Q   Q   Q
|------0-0-|------------|-0--------------|-12---6---3----|
|-1--------|-3--1-----3-|-----1----13-15-|---------------|
|----------|------------|---0---12-------|---------------|
|-0--------|------------|----------------|----------0-2--|
|----------|------------|-3--------------|--------3------|
|----------|-3----------|----------------|---------------|
  H    Q     H      Q     E E E  E  E  E    Q.    E E E


  Q   Q  Q    Q   Q.     E   Q   Q  Q    Q   H
|-----5--5--|-5---3------1-|-3---0-----|------------|
|-----------|--------------|--------3--|-1----------|
|--------2--|--------0-2---|-----------|-----2--0---|
|-----3-----|-----3--------|-----2-----|---2--------|
|---3-------|---3----------|---2-------|-0----------|
|-1---------|-1------------|-0---------|------------|
  E E Q  Q    E E E  E Q     E E H       E E Q  Q


  Q  Q  E E   H    Q    Q.     Q.       Q   H
|---------0-|---------|-----------1-3-|-0--------|
|----1--3---|-3----1--|-1------1------|-----1----|
|-----------|-0-------|------0--------|---0------|
|-3--0------|---------|----2----------|----------|
|-----------|---------|-3-------------|-3--------|
|-----------|---------|---------------|----------|
  Q  H        H    Q    E  E E E  E E   E E H


  Q   Q  E E   H     Q    E Q   Q.       Q   H
|-1--------0-|----------|----------1-3-|-0--------|
|-1---1--3---|-3-----1--|-0h1---1------|-----1----|
|-2----------|----------|-----0--------|---0------|
|-0----------|----------|---2----------|----------|
|------------|-2--------|-3------------|-3--------|
|------------|-3--------|--------------|----------|
  H.           H.         E E E E  E E   E E H


  Q.     Q.       H.
|-----------1-3-|-0-----*|
|-3------1------|-1-----*|
|------0--------|-0-----*|
|----2----------|-2-----*|
|-3-------------|-3-----*|
|---------------|-------*|
  E  E E E  E E

h - hammer on
s - slide

W - whole
H - half
Q - quarter
E - 8th
+ - note tied to previous
. - note dotted

Low melody durations appear below the staff
Login or Register to remove this ad.