Login or Register to remove this ad.

Mute City (Super Smash Bros. Melee) Guitar Tab

Submitted: Jun 29, 2010 by hslesperance (Last updated: Oct 17, 2014)

5
Average: 5 (4 votes)
Download | Listen
Game: Super Smash Bros. Melee
Composer(s): Hirokazu Ando, Shogo Sakai, Tadashi Ikegami, Takuto Kitsuta
Style: 2 or more instruments, Transcription
Series: Super Smash Bros.

AutoScroll: Slow | Medium | Fast
Mute City
Smash Bros. Melee
Composed by Hajime Wakai, Taro Bando
Arranged by Shogo Sakai, Tadashi Ikegami, Takuto Kitsuta, Hirokazu Ando
Tabbed by hslesperance
6/29/10


Standard Tuning

Guitar 1

e-------------------------------------------------------------------
B---18------16----15----------15----16----16/18------16----15-------
G---------------------17---------------------------------------17---
D-------------------------------------------------------------------
A-------------------------------------------------------------------
E-------------------------------------------------------------------

e---------------15------------16b18--16------15--------15--15b16----
B------15-16-18---------18-------------------------18---------------
G---17--------------------------------------------------------------
D-------------------------------------------------------------------
A-------------------------------------------------------------------
E-------------------------------------------------------------------

e---15--------------------------------------------------------------
B---------18------16----15------------------------------------------
G-------------------------------------------------------------------
D-------------------------------------------------------------------
A-------------------------------------------------------------------
E-------------------------------------------------------------------

e-------------------------------------------------------------------
B---16/18------16----15----------15----16----16/18------16----15----
G------------------------17---------------------------------------17
D-------------------------------------------------------------------
A-------------------------------------------------------------------
E-------------------------------------------------------------------

e---------------15------------16b18--16------15--------15--15b16----
B------15-16-18---------18-------------------------18---------------
G---17--------------------------------------------------------------
D-------------------------------------------------------------------
A-------------------------------------------------------------------
E-------------------------------------------------------------------

e---15--------------------------------------------------------------
B---------18------16----15------------------------------------------
G-------------------------------------------------------------------
D-------------------------------------------------------------------
A-------------------------------------------------------------------
E-------------------------------------------------------------------


Guitars 1 and 2 alternate 
|e-------------------------------------------------------------------|
|B------------------------------------------------15-15/16~~~~-------|
|G------------14-15-17~~~~---------------------15--------------------|Gutiar 1
|D---------17-------------------------------17-----------------------|
|A-------------------------------------------------------------------|
|E-------------------------------------------------------------------|
|                                                                    |
|e-------------------------------------------------------------------|
|B-------------------------------------------------------------------|
|G---14~~~~------------------14-15-17/19~~~~-------------------------|Guitar 2
|D------------------------17-----------------------------------------|
|A-------------------------------------------------------------------|
|E-------------------------------------------------------------------|


|e-------------------------------------------------------------------|
|B-------------------------------------------------------------------|
|G-------------------------------------------------------------------|Guitar 1
|D----------------------------13-13/15~~~~---------------------------|
|A-------------------------16----------------------------------------|
|E----------------------13-------------------------------------------|
|                                                                    |
|e-------------------------------------------------------------------|
|B------15-16-16/18~~~~----------------------------12/14~~~~---------|
|G---15-----------------------------------------13-------------------|Gutiar 2
|D-------------------------------------------15----------------------|
|A----------------------------------------16-------------------------|
|E-------------------------------------------------------------------|


|e-------------------------------------------------------------------|
|B---------14-16/18~~~~----------------------------------------------|
|G------13-----------------------------------------------------------|Guitar 1
|D---15--------------------------------------------------------------|
|A-------------------------------------------------------------------|
|E-------------------------------------------------------------------|
|                                                                    |
|e---------------------------21--------------------------------------|
|B------------------------21-----------------------------------------|
|G---------------------18--------------------------------------------|Gutiar 2
|D-------------------------------------------------------------------|
|A-------------------------------------------------------------------|
|E-------------------------------------------------------------------|


Guitars 1 and 2 play simultaneously
|e---16b18--16--14-13------13----------------------------------------|
|B---------------------16-----14--13---------------------------------|
|G------------------------------------15-13-------------13--15-13----|Gutiar 1
|D-------------------------------------------16--15-16---------------|
|A-------------------------------------------------------------------|
|E-------------------------------------------------------------------|
|                                                                    |
|e-------------------------------------------------------------------|
|B---18b19--18--16-14--13--14----------------------------------------|
|G----------------------------15--13---------------------------------|Guitar 2
|D------------------------------------16-15--13-----13--15--16-15----|
|A-----------------------------------------------16------------------|
|E-------------------------------------------------------------------|


|e-------------------------------------------------------------------|
|B-------14-16~~~~---------------------------------------------------|
|G---15--------------------------------------------------------------|Gutiar 1
|D-------------------------------------------------------------------|
|A-------------------------------------------------------------------|
|E-------------------------------------------------------------------|
|                                                                    |
|e-------------------------------------------------------------------|
|B-------------------------------------------------------------------|
|G-------15-16~~~~---------------------------------------------------|Guitar 2
|D---16--------------------------------------------------------------|
|A-------------------------------------------------------------------|
|E-------------------------------------------------------------------|

h - hammer on
p - pull off
/ - slide up
b - bend
~ - vibrato
Login or Register to remove this ad.

1 comment on Mute City

nice tab

nice tab