Ads

Memory (Super Paper Mario) Guitar Tab

Submitted: Aug 25, 2011 by Cherucha

5
Average: 5 (2 votes)
Download | Listen
Game: Super Paper Mario
Composer(s): Naoko Mitome, Chika Sekigawa
Style: Transcription
Series: Mario

AutoScroll: Slow | Medium | Fast
      Memory                                
~Super Paper Mario~
Composed by: Naoko Mitome and Chika Sekigawa
Arranged by: Angel Long


  Intro
E|-0-------------0----------
B|---0-3---0-------3---0----
G|-------2---0-2-----2---0--
D|--------------------------
A|--------------------------
E|--------------------------
   
  Just repeat this part 
E|-------0------------------
B|---------3---0------------
G|-2---0-----2---0-2---0----
D|---2---------------2---0--
A|-------------------------3
E|--------------------------

E|---------------0----------
B|---0-3---0-------3---0----
G|-------2---0-2-----2---0--
D|--------------------------
A|--------------------------
E|-------------------------- 

Login or Register to remove this ad.