Ads

Sealed (Terranigma) Guitar Tab

Submitted: Jan 08, 2008 by archard (Last updated: Jan 08, 2008)

5
Average: 5 (2 votes)
Download | Listen
Game: Terranigma
Composer(s): Miyoko Kobayashi, Masanori Hikichi
Style: Transcription

This song is also called Sadness

AutoScroll: Slow | Medium | Fast
Sealed
This is the main part for the song,
Slow and easy song, you should have it down fast.
If not just keep at it.
 
* = this note has an echo.
 
---------8--11--10------------------8--11--10--11--13--
---6----------------11--------6------------------------
------5-----------------10-------5---------------------
-------------------------------------------------------
-------------------------------------------------------
-------------------------------------------------------

                    *                         *
---16--15--13------13----16--15--13------13----
---------------16--------------------16------13
-----------------------------------------------
-----------------------------------------------
-----------------------------------------------
-----------------------------------------------

                    *                                 *
---16--15--13------13----16--15--16--15--13------13----
---------------16----------------------------16------13
-------------------------------------------------------
-------------------------------------------------------
-------------------------------------------------------
-------------------------------------------------------
 
If you want it lower and to sound good, just subtract 12 from each note.
(ex. 16-12=4 so you play 4 on that string instead of 16, but this only
works on the last two tab sets.)
 
If this turns out good and you guys like it I might try more.
Login or Register to remove this ad.

1 comment on Sealed

I like it

I like it