Ads

Hometown (Crysta) (Terranigma) Guitar Tab

Submitted: Apr 14, 2009 by Agahnim (Last updated: Feb 03, 2010)

5
Average: 5 (8 votes)
Download | Listen
Game: Terranigma
Composer(s): Miyoko Kobayashi, Masanori Hikichi
Style: Arrangement, Fingerstyle

AutoScroll: Slow | Medium | Fast
Hometown (Crysta)
Terranigma
Composed by: Miyoko Kobayashi, Masanori Hikichi
Arranged by: Ivo Koporcic
April 14, 2009

Now here there is some tricky parts (stretching)



     E  E  E  E  E  E  E  E     E  E  E  E  E  E  E  E   
E||--------------------------|--------------------------|
B||--------0-----------0-----|--------0--------------0--|
G||-----------2-----------2--|-----------2--------------|
D||-----2-----------2--------|-----2--------------2-----|
A||--0-----------------------|--0-----------------------|
E||--------------------------|--------------------------|


    E  E  E  E  E  E  E  E     E  E  E  E  E  E  E  E   
|------------0--------------|--------------------------|
|---2-----2-----0-----------|-----------3--------------|
|*--------2-----------1--2--|--------2--------------2--|
|*-----2-----------2--------|-----2--------------2-----|
|---0-----------------------|--------------------------|
|---------------4-----------|--2-----------2-----0-----|


  E  E  E  E  E  E  E  E     E  E  E  E  E  E  E  E   
--------2-----------------|-----------0--------------|
--3--------3--5--------0--|--------0--------------3--|
--------2-----------2-----|-----1--------------4-----|
--0--4-----------2--------|-----------------2--------|
--------------4-----------|--------------------------|
--------------------------|--0-----------0-----4-----|


  E  E  E  E  E  E  E  E     E  E  E  E  E  E  E  E   
--2-----------0-----------|--------------0-----------|
--2--------3-----------2--|--3--------2--2--------0--|
--------2-----2-----2-----|--4--2--4--------2--------|
-----4-----------2--------|--------------------2-----|
--------------------------|--2-----------0-----------|
--2-----------0-----------|--------------------------|


  E  E  E  E  E  E  E  E     E  E  E  E  E  E  E  E   
--2-----------0-----------|--------------------------|
--2--0--2-----------------|--3-----------2-----2--2--|
-----------2-----------2--|--4--2--4--2--2-----2-----|
--0-----------------2-----|-----------------4--------|
--------------4-----------|--2-----------2-----0-----|
--------------------------|--------------------------|


  E  E  E  E  E  E  E  S S    E  E  E  E  E  E  E  E   
-----------2-----------3---|--0--------0--------0-----|
--0-----3-----------3--2-3-|--------0-----------0--3--|
-----0-----------0---------|-----2-----------1--------|
---------------------------|--------------------------|
---------------------------|--------------------------|
--3-----------3------------|--0-----------0-----4-----|


  E  E  E  E  E  E   E  S T T    E  E  E  E  E  E  E  S   S  
-----0--9--------0--10--------|--------------0--------------|
--------------0-----------2-0-|--2-----0-----------0--------|
--6---------------------------|-----------2-----2-----------|
--7--------7--0---------------|-----2-----------------------|
--5---------------------------|--0--------------------0s-12-|
------------------------------|-----------------------------|


   E   E  E   E  E   E  E   E     E  E   E  E  E  E   E  S  T   T  
-----------------0-------------|--------12-----0-----10----12p-10-|
----------0-------------0------|---------0------------0-----------|
-------------------------------|----------------------------------|
-------------------------------|-----7------7-----7------7--------|
--12---------12-----12-----12--|--0-------------------------------|
------12-----------------------|----------------------------------|


  E  E  E  E   E  S S E   E     E  E  E  E  E  E  E  S T T  
--9-----------------7----10--|--9-----------0----------5-7-|
--------0-----10------0------|--------0-----------0--------|
---------------9-------------|-----------------------------|
-----7-----7------7-------7--|-----7-----7-----7-----7-----|
--0--------------------------|--0--------------------------|
-----------------------------|-----------------------------|


  E  E  E  E  E  E  E  E     E  E   E  E  E  E   E  S  T  T  
--5-----------------------|--------12-----0-----10----12-10-|
--------0-----5-----0--3--|---------0------------0----------|
-----2-----2-----2--------|---------------------------------|
--------------------------|-----7------7-----7------7-------|
--0-----------------------|--0------------------------------|
--------------------------|---------------------------------|


  E  E  E  E   E  S S E  E     E  S S S S S T T E  S E  S E   
--9-----------16----0-------|-----------------------------0--|
--------0----------------0--|--2------------3-2-3---------0--|
----------------------------|-------2-----4----------2-------|
-----7-----7----------------|-----2-----2----------2----2----|
--0------------0----0-------|--0----------------0----0----0--|
----------------------------|--------------------------------|


  S S S S S S S S E.  S E  E     E  E  E  E  E  E  E  E   
----------------------0----4--|--5--------5--4--------4--|
--------0-----0---2-----------|--------------------5-----|
------2---2-------2-----1-----|--------7-----------4-----|
----2-------2---2-------------|-----7-----------6--------|
--0---------------0-----------|--5-----------5-----------|
------------------------0-----|--------------------------|


  Q    Q    Q    E  E     E  E  E  E  E  E  E  E     E  E  E  E  E  E  E  E   
--5----4----2----0--4--|--5--------5--4-----5-----|--2-----------0-----------|
--7----5----3----0-----|--------3-----5-----5-----|-----------3--------3-----|
-----------------1-----|-----2-----------4--------|--------2-----------2-----|
--0---------0----------|--0--------------------4--|-----0-----------0-----4--|
-----------------------|--------------4-----------|--2-----------0-----------|
-----------------------|--------------------------|--------------------------|


  E  E  E  E  E  E  E  E     E    E  E  E  E  E  E  E   
-----------2-----0--------|-------------2--------0-----|
--0-----------------3-----|-------------0--------------|
--------0--------------2--|--0-------0--------2--0-----|
-----0--------------------|-------0--------0--------0--|
--------------------------|----------------------------|
--3--------3--------------|--3--0g3--------------3-----|


                                         |--3--|           
  E  E  E  E  E  E  E  E     E  E  E  E  E  E  E  E  E     
--2--------------2--------|--------------2---------------||
-----------2--------2-----|--------------2--2--2---------||
--3--------------------3--|--------3-----------------4--*||
--------4-----------------|-----------4-----------2-----*||
-----4--------------4-----|-----4------------------------||
--2-----------------------|--2-----------2--------4------||


                                                                    ^         
  E  E  E  E  E  E  E  E     E  E  E  E  E  E  E  E     E  E  E  E  H         
-----------0--------------|--------------0-----4-----|--5-----------5--------|
--2-----2-----0-----------|--------3--2--0-----0-----|--------2-----2--------|
--------2-----------1--2--|--------2-----------------|--2--------2--2--------|
-----2-----------2--------|-----2-----------2--------|-----2--------2--------|
--0-----------------------|--------------------------|--0--------------------|
--------------4-----------|--2-----------0-----------|-----------------------|


-------||
-------||
-------||
-------||
-------||
-------||




Duration Legend
---------------
W - whole
H - half
Q - quarter
E - 8th
S - 16th
T - 32nd
. - note dotted
|-n-|  - n-tuplets


Tablature Legend
----------------

^ - brush up
Login or Register to remove this ad.

12 comments on Hometown (Crysta)

Nice! Did you see my

5

Nice! Did you see my transcription? I was wondering whether the similarities were coincidence or if you checked my tab.

Crystalholm is a beautiful song!!

most of the "arpeggios", were

most of the "arpeggios", were extracted from you arrangement "PART A",
and used them as much as it were factible to do
and I done that because you already did what I needed ( a clean transcription of the "guitar" in the song)
so, i used it xd

Neat! Now I feel like I

Neat! Now I feel like I helped with something ^-^

yeas thanks, indeed I was a

yeas thanks, indeed I was a bit impolite in not thanking before

You're welcome, and don't

You're welcome, and don't worry about it. I just like hearing that someone used one of my tabs for something ^-^

Sounds great!

5

Thanks, never had the privilege to play this game (never even heard of it), but this is a well done tab and the song itself is pleasant and relaxing to play. Keep up the good work!

you can play it in a SNES

you can play it in a SNES emu, as i'm doing it right now,
I now have a fever of playing all kind of old rpgs that I couldn't get to play in SNES...

This reminds me of my own,

This reminds me of my own, unfinished arrangement for this song. This looks quite different from mine, so I think I should try and finish it some day. ;O

Seems hard to play.. but i'll

5

Seems hard to play.. but i'll try!! Awesome tab!

Awesome tab for an awesome song

5

Man this tab is tricky, or I find it at least. But this game was epic, Try playing the whole soul blazer trilogy if you havent, Illusion of Gaia has some pretty wicked tunes. If you've got an emulator also check out Seiken Densetsu 3, if you havent. Well keep up the good work, And good luck.

Yes, this is tricky

I think i'll retake this and make something more playable...

no need, this is great as it

no need, this is great as it is ;) one of my favourite games of all times, and one of my favourite songs of all times... guess that makes this one of my favourite tabs of all times ?