Ads

Title Screen (Mega Man X) Guitar Tab

Submitted: Oct 03, 2007 by archard

3
Average: 3 (2 votes)
Download | Listen
Game: Mega Man X
Composer(s): Toshihiko Horiyama, Setsuo Yamamoto, Yuki Iwai, Yuko Takehara
Style: 2 or more instruments, Transcription
Series: Mega Man

AutoScroll: Slow | Medium | Fast
Megaman X

Title

Rhythm
|-----------------------------------------------------------------|
|-----------------------------------------------------------------|
|--8/5-5-5-5-5-5-5-5-5-5-5--8p0-10--8/5-5-5-5-5-5-5-5-5-5-5-------|
|--8/5-5-5-5-5-5-5-5-5-5-5--8p0-10--8/5-5-5-5-5-5-5-5-5-5-5--8-5--|
|--6/3-3-3-3-3-3-3-3-3-3-3--6p0-8---6/3-3-3-3-3-3-3-3-3-3-3--8-5--|
|------------------------------------------------------------6-3--|
PM     . . . . . . . . . .              . . . . . . . . . .

|---------------------------------------------------------|
|---------------------------------------------------------|
|--8/5-5-5-5-5-5-5-5-5-5-5--8p0-10--17--15--13--12--------|
|--8/5-5-5-5-5-5-5-5-5-5-5--8p0-10--17--15--13--12--10-8--|
|--6/3-3-3-3-3-3-3-3-3-3-3--6p0-8---15--13--11--10--10-8--|
|---------------------------------------------------8--6--|
PM     . . . . . . . . . .             

|-----------------------------------------------------------------|
|-----------------------------------------------------------------|
|--8/5-5-5-5-5-5-5-5-5-5-5--8p0-10--8/5-5-5-5-5-5-5-5-5-5-5-------|
|--8/5-5-5-5-5-5-5-5-5-5-5--8p0-10--8/5-5-5-5-5-5-5-5-5-5-5--8-5--|
|--6/3-3-3-3-3-3-3-3-3-3-3--6p0-8---6/3-3-3-3-3-3-3-3-3-3-3--8-5--|
|------------------------------------------------------------6-3--|
PM     . . . . . . . . . .              . . . . . . . . . .

|----------------------------------------------------------------------|
|----------------------------------------------------------------------|
|--8/5-5-5-5-5-5-5-5-5-5-5--8p0-10--12--14--16--17--17-15-17~---15-17--|
|--8/5-5-5-5-5-5-5-5-5-5-5--8p0-10--12--14--16--17--17-15-17~---15-17--|
|--6/3-3-3-3-3-3-3-3-3-3-3--6p0-8---10--12--14--15--15-13-15~---13-15--|
|----------------------------------------------------------------------|
PM     . . . . . . . . . .             

Lead
|---------18-17-16-15-----18-20-16-15----18-17-16-15--|
|--13/------------------------------------------------|
|-----------------------------------------------------|
|-----------------------------------------------------|
|-----------------------------------------------------|
|-----------------------------------------------------|
|-----------------------------------------------------|

|--18-20-15-15-17-17-18-18-20-20--20-18-20~---18-20--|
|----------------------------------------------------|
|----------------------------------------------------|
|----------------------------------------------------|
|----------------------------------------------------|
|----------------------------------------------------|
|----------------------------------------------------|
Login or Register to remove this ad.