Ads

Stage Select (Mega Man X) Guitar Tab

Submitted: Oct 03, 2007 by Zero

5
Average: 5 (1 vote)
Download | Listen
Game: Mega Man X
Composer(s): Toshihiko Horiyama, Setsuo Yamamoto, Yuki Iwai, Yuko Takehara
Style: Transcription
Series: Mega Man

AutoScroll: Slow | Medium | Fast
this is the tune that plays on the stage select screen in megaman x.
Play it with a lot of distortion!

e-------------------------------------------------------]
b-------------------------------------------------------]
g-------------------------8-6---------------------------]
d---6-8-------------6-8---8-6---------------------------]
a-8-6-8--4-6-4----8-6-8---------------------------------]
e-8------4-6-4----8-------------------------------------]

e-------------------------------------------------------]
b-------------------------------------------------------]
g-------------------------6-8-6-------------------------]
d---6-8-------------6-8---6-8-6-8-6-8-------------------]
a-8-6-8--4-6-4----8-6-8---------8-6-8-------------------]
e-8------4-6-4----8-------------------------------------]

And just repeat it!
Login or Register to remove this ad.

4 comments on Stage Select

HELL YEAH!!!!!!! AWESOME

HELL YEAH!!!!!!!
AWESOME TAB!!! AND WITH A LOT OF DISTORTION, ITS JUST SIK!!!

YEAH!! MMX ROXXXX!

YEAH!! MMX ROXXXX!

I've been looking every

I've been looking every where for this, thanks!

no problem.

no problem.