In Winter (Lufia 2) Guitar Tab

Submitted: Nov 28, 2007 by ajrock2000 (Last updated: Sep 26, 2009)

5
Average: 5 (2 votes)
Download | Listen
Game: Lufia 2
Composer(s): Yasunori Shiono
Style: Arrangement, Fingerstyle

AutoScroll: Slow | Medium | Fast
                                    IN WINTER
                         As recorded by Yasunori Shiono
                   (From the 1995 Album ESTPOLIS BIOGRAPHY II)

Music by Yasunori Shiono
Arranged by ajrock2000

Gtr I (E A D G B E) - 'Gtr 1'

    Q=85
   4/4
    Gtr I
    Q   Q   Q   Q     Q   Q   Q  Q    Q   Q   Q   Q     Q   Q   Q  Q
||--0---3---1---0---|-0-------1--0--|-0---0---1---0---|-0-------1--0--|
||o-----3-------3---|-----3---------|-----3---3---0---|-----3---------|
||----0---0---0---0-|---0---0-------|-----------------|---------------|
||------------------|-----3---------|---2---2---2---2-|---2-0-2-------|
||o-3---------------|---------3--2--|-0---------------|---------0-----|
||------------------|---------------|-----------------|------------3--|
    E E E Q   E E E   E E E E Q  Q    E E E E E E E E   E E E E Q  Q


  Q   Q   Q   Q     Q   Q   Q   E E   H       H         H     Q  Q
|-3---------------|-3---------------|-0---------3---3-|-1------------||
|-----1---0---1---|-----1---0---1-3-|---0-3-0-3---3---|----------0--o||
|---------0---0---|---------0---0---|-----0---2---0---|-------2------||
|-----3-------3---|-----3-------3---|---0---0---0---0-|--------------||
|---3---3---3---3-|---3---3---3---3-|-----------------|-------0--2--o||
|-1---------------|-1---------------|-3---------------|-3--3---------||
  E E E E E E E E   E E E E E E E E   E E E E E E E E   Q  Q  Q  Q

Login or Register to remove this ad.

7 comments on In Winter

Seems to be showing up wrong

Seems to be showing up wrong on the front page, did I do something wrong? It says "recording" next to it? lol..i dunno

Heh, don't forget to put

Heh, don't forget to put "Guitar Tab" or "Bass Tab" in the title. I've set it so that if the word "Tab" isn't in the title it will show up on the front page with recording after it, because it's a list that feeds the titles of the latest tabs or recordings, and I figured there needed to be a way to distinguish between the two.

Ah, I see. Thanks..

Ah, I see. Thanks..

This is a nice tab, but I

This is a nice tab, but I just had to lol when I realized what this song reminded me of

http://ajrock2000.youaremyfriend.com/

:D

hahahah..you're right it

hahahah..you're right it does....o my, wow, I seriously laughed out loud at that...

I

I <3 this tab

Love the sound of this

Love the sound of this track. A guitar friendly variation of "For the Savior"