Ads

Opening Theme (Final Fantasy VI) Guitar Tab

Submitted: Feb 19, 2009 by auriplane (Last updated: Jan 15, 2010)

5
Average: 5 (7 votes)
Download | Listen
Game: Final Fantasy VI
Composer(s): Nobuo Uematsu
Style: Arrangement, Fingerstyle
Series: Final Fantasy

AutoScroll: Slow | Medium | Fast
                   Final Fantasy VI - Opening Theme GUITAR TAB
                               Song by Nobuo Uematsu

                Arranged & tabbed by auriplane ([email protected])

In Part I, the tempo changes over time--listen to the original or the MIDI 
for the tempo changes, or just play whatever comes naturally.

                                     Part I

   W           W            W           W            W           W
e |-----------|------------|-----------|------------|-----------|1-----------|
B |-----------|------------|-----------|------------|1----------|1-----------|
G |-----------|------------|-----------|0-----------|0----------|0-----------|
D |-----------|------------|0----------|0-----------|0----------|0-----------|
A |-----------|0-----------|0----------|0-----------|0----------|0-----------|
E |0----------|0-----------|0----------|0-----------|0----------|0-----------|
                                                                 
   H.       Q  W            W           W            W           W
e |0----------|------------|-----------|0-----------|-----------|------------|
B |1--------4-|L-----------|-----------|1-----------|4----------|------------|
G |---------4-|L-----------|-----------|------------|4----------|------------|
D |-----------|L-----------|-----------|------------|-----------|------------|
A |-----------|------------|-----------|------------|-----------|------------|
E |1--------1-|------------|-----------|1-----------|1----------|------------|

    Repeat twice:

   E  E  E  E  E  E  E  E   E  E  E  E  E  E  E  E   E  E  E  E  E  E  E  E
e |------------------------|------------------------|------------------------|
B |0-----------2-----0-----|------2-----0-----------|2-----0-----------2-----|
G |------2--0-----------0--|2--------0--------2--0--|---------0--2--------0--|
D |---2-----------2--------|---2-----------2--------|---2-----------2--------|
A |------------------------|------------------------|------------------------|
E |------------------------|------------------------|------------------------|

   E  E  E  E  E  E  E  E   E  E  E  E  E  E  E  E   E  E  E  E  E  E  E  E
e |------------------------|------------------------|------------------------|
B |1-----------4-----1-----|------4-----1-----------|4-----1-----------4-----|
G |------3--1-----------1--|3--------1--------3--1--|---------1--3--------1--|
D |---4-----------4--------|---4-----------4--------|---4-----------4--------|
A |------------------------|------------------------|------------------------|
E |------------------------|------------------------|------------------------|

    Repeat twice:

   E  E  E  E  E  E  E  E   E  E  E  E  E  E  E  E   E  E  E  E  E  E  E  E
e |------------0-----------|------0-----------------|0-----------------0-----|
B |3-----1-----------3-----|1-----------3-----1-----|------3-----1-----------|
G |---0-----3-----0-----3--|---0-----3-----0-----3--|---0-----3-----0-----3--|
D |------------------------|------------------------|------------------------|
A |------------------------|------------------------|------------------------|
E |------------------------|------------------------|------------------------|

   E  E  E  E  E  E  E  E   E  E  E  E  E  E  E  E   E  E  E  E  E  E  E  E
e |------------0-----------|------0-----------------|0-----------------0-----|
B |3-----1-----------3-----|1-----------3-----1-----|------3-----1-----------|
G |---------2-----------2--|---------2-----------2--|---------2-----------2--|
D |---4-----------4--------|---4-----------4--------|---4-----------4--------|
A |------------------------|------------------------|------------------------|
E |------------------------|------------------------|------------------------|

    Don't repeat:

   E  E  E  E  E  E  E  E   E  E  E  E  E  E  E  E   E  E  E  E  E  E  E  E
e |------------------------|------------------------|------------------------|
B |3-----1-----4-----3-----|1-----4-----3-----1-----|4-----3-----1-----4-----|
G |---------1-----------1--|---------1-----------1--|---------1-----------1--|
D |---3-----------3--------|---3-----------3--------|---3-----------3--------|
A |------------------------|------------------------|------------------------|
E |------------------------|------------------------|------------------------|

   E  E  E  E  E  E  E  E   E  E  E  E  E  E  E  E   E  E  E  E  E  E  E  E
e |------------------------|------------------------|------------------------|
B |1-----0-----3-----1-----|0-----3-----1-----0-----|3-----1-----0-----3-----|
G |---------0-----------0--|---------0-----------0--|---------0-----------0--|
D |---2-----------2--------|---2-----------2--------|---2-----------2--------|
A |------------------------|------------------------|------------------------|
E |------------------------|------------------------|------------------------|

   E  E  E  E  E  E  E  E   E  E  E  E  E  E  E  E   E  E  E  E  E  E  E  E
e |------------------------|------------------------|------------------------|
B |0-----------1-----0-----|------1-----0-----------|1-----0-----------1-----|
G |------2-----------------|2-----------------2-----|------------2-----------|
D |---0-----3-----0-----3--|---0-----3-----0-----3--|---0-----3-----0-----3--|
A |------------------------|------------------------|------------------------|
E |------------------------|------------------------|------------------------|

   E  E  E  E  E  E  E  E   W
e |---------------------1--|3-----------------------|
B |------------0-----3-----|------------------------|
G |0--------2-----0--------|------------------------|
D |---0--3-----------------|------------------------|
A |------------------------|------------------------|
E |------------------------|------------------------|




                                     Part II

    Part II-A

    Repeat twice:

   H           Q     Q      W
e |------------------------|------------------------|
B |------------------1-----|------------------------|
G |0-----------3-----0-----|6-----------------------|
D |------------3-----0-----|6-----------------------|
A |3-----------3-----------|4-----------------------|
E |------------------------|------------------------|

   H           Q     Q      W
e |------------------------|1-----------------------|
B |------------------1-----|2-----------------------|
G |0-----------3-----0-----|1-----------------------|
D |------------3-----0-----|------------------------|
A |3-----------3-----------|------------------------|
E |------------------------|------------------------|

    Part II-B

   Q     Q     Q     E  E   Q     Q     Q     E  E   Q     T T T E  E  E  E
e |------------------------|------3-----2-----6--8--|------2---2-2--0--2--3--|
B |---------------------1--|4-----------------------|--------3---3--1--3--4--|
G |------0-----------3-----|0-----3-----3-----6-----|------------------------|
D |1-----------4-----------|------0-----1-----------|------------------------|
A |3-----1-----------------|3-----------------8-----|3-----------------------|
E |------------2-----1-----|------------------------|------------------------|

   Q     T T T E  E  E  E   Q     E  E  Q     Q      E  E  E  E  E  E  E  E
e |5-----------------------|0-----------------------|------------------------|
B |6-----------------------|1-----3--1--------------|---4--2--0-----------0--|
G |------2-2-2-2--0--2--3--|1-----------1-----------|------------1-----3-----|
D |------3-----3--1--3--5--|------------------------|------------------------|
A |------------------------|------------------------|2--------------2--------|
E |------------------------|1-----------------1-----|------------------------|

   E  E  E  E  Q     Q      E  E  E  E  E  E  E  E   E  E  E  E  Q     Q
e |------------------------|3-----------------------|------3-----------------|
B |------1-----------------|---4--------------3--4--|3-----------------------|
G |0-----------------------|------5--------5--------|---3--------------------|
D |---2--------------------|------------------------|------------------------|
A |3--------3--3-----3-----|3--------3--3-----------|------------------------|
E |------------------------|------------------------|3--------3--3-----3-----|

   E  E  Q     H            W
e |------3-----3-----------|-----3------------------|
B |2-----------1-----------|----0-------------------|
G |---2--------1-----------|---0--------------------|
D |------------------------|--0---------------------|
A |------------------------|-2----------------------|
E |3-----------------------|3-----------------------|



                                     Part III

    Part III-A

   E   E   E   E   E   E   E   E    E   E   E   E   E   E   E   E
e |--------------------------------|--------------------------------|
B |--------1---------------1-------|--------1---------------1-------|
G |----2---------------2-----------|----2---------------2-----------|
D |2-----------2---2-----------2---|2-----------2---2-----------2---|
A |0-----------0---0---------------|0-----------0---0-------0-------|
E |--------------------------------|--------------------------------|
                                                                > >
   E   E   E   E   E   E   E   E    E   E   E   E   E   E   E   S S
e |--------------------------------|--------------------------------|
B |--------1---------------1-------|--------1---------------1-----0-|
G |----2---------------2-----------|----2---------------2-------2---|
D |2-----------2---2-----------2---|2-----------2---2---------------|
A |0-----------0---0---------------|0-----------0---0-------0-------|
E |--------------------------------|--------------------------------|

    Part III-B

   > > >                       > >  >           >               > >
   S S S S S S S S S S S S S S S S  S S S S S S S S S S S S E   S S
e |--0-----------------------------|----------------0---------------|
B |1---1-------1---------1-----0---|0-------------------0---------0-|
G |--------2-----2-----2-----2---2-|----------0-------0---------2---|
D |----------2-------2-------------|----2-------2---------2---------|
A |0-----0---------0-------0-------|--2---2-------2-----------------|
E |--------------------------------|0-------0-------0-------0-------|

   > > >                       > >  >               >           > >
   S S S S S S S S S S S S S S S S  S S S S S S S S S S S S E   S S
e |--0---------------0-------------|----------------0---------------|
B |1---1-------1-------1-------0---|0-----------0-----0-----------3-|
G |--------2-----2---------2-----2-|----0-----0-----------------5---|
D |----------2-----------2---------|------2-------2-------2---------|
A |0-----0---------0---------0-----|--2-----------------2-----------|
E |--------------------------------|0-------0-------0-------0-------|

   > > >                       > >  >         >                 > >
   S S S S S S S S S S S S S S S S  S S S S S S S S Q.          S S
e |--3-----------------------------|----------------3---------------|
B |5---5-------5-----------5---3---|3-------------------3-------1-0-|
G |--------5-----5-----5---------5-|--------4---------4-------------|
D |------5---5-------5---5---------|----5-----5-----------5---------|
A |3---------------3---------3-----|--5---5-----5-------------------|
E |--------------------------------|3-------------3---------3-------|

   >           > > >           > >  >                           > >
   S S S S S S S S S S S S S S S S  S S S S S S S S Q.          S S
e |--------------------------------|--------------------------------|
B |------------1-0---------3---1-0-|------------------------------0-|
G |2-------2-------2---2-----2-----|2-------2-------------------2---|
D |----3-----3-----0-3---3---------|----2-----2---------------------|
A |--3---3-------------------------|0-3---3-----3-2-0---------------|
E |1-------------------------------|--------------------------------|

    Part III-C
   
   > > >                       > >  >           >               > >
   S S S S S S S S S S S S S S S S  S S S S S S S S S S S S E   S S
e |--0-----------------------------|----------------0---------------|
B |1---1-------1---------1-----0---|0-------------------0---------0-|
G |--------2-----2-----2-----2---2-|----------0-------0---------2---|
D |----------2-------2-------------|----2-------2---------2---------|
A |0-----0---------0-------0-------|--2---2-------2-----------------|
E |--------------------------------|0-------0-------0-------0-------|

   > > >                       > >  >               >           > >
   S S S S S S S S S S S S S S S S  S S S S S S S S S S S S E   S S
e |--0---------------0-------------|----------------0---------------|
B |1---1-------1-------1-------0---|0-----------0-----0-----------3-|
G |--------2-----2---------2-----2-|----0-----0-----------------5---|
D |----------2-----------2---------|------2-------2-------2---------|
A |0-----0---------0---------0-----|--2-----------------2-----------|
E |--------------------------------|0-------0-------0-------0-------|

   > > >                       > >  >         >                 > >
   S S S S S S S S S S S S S S S S  S S S S S S S S Q.          S S
e |--3-----------------------------|----------------3---------------|
B |5---5-------5-----------5---3---|3-------------------3-------1-0-|
G |--------5-----5-----5---------5-|--------4---------4-------------|
D |------5---5-------5---5---------|----5-----5-----------5---------|
A |3---------------3---------3-----|--5---5-----5-------------------|
E |--------------------------------|3-------------3---------3-------|

   >           > > >           > >  >                           > >
   S S S S S S S S S S S S S S S S  S S S S S S S S Q.          S S
e |--------------------------------|--------------------------------|
B |------------1-0---------3---1-0-|------------------------------3-|
G |2-------2-------2---2-----2-----|2-------2-------------------5---|
D |----3-----3-----0-3---3---------|----2-----2---------------------|
A |--3---3-------------------------|0-3---3-----3-2-0---------------|
E |1-------------------------------|--------------------------------|

    Part III-D

   > > >                       > >  >         >                 > >
   S S S S S S S S S S S S S S S S  S S S S S S S S S S S S E   S S
e |--3-----------------------------|--------------------------------|
B |5---5-------5---------------3---|3-----------------------------3-|
G |--------5-----5-----5---5-----5-|--------4-------------------5---|
D |------5---5-------5-------5-----|----5-----5---5-----5-----------|
A |3---------------3-----3---------|--5---5-----5-----5---5---------|
E |--------------------------------|3---------------3-------3-------|

   > > >                       > >  >       >                   > >
   S S S S S S S S S S S S S S S S  S S S S S S S S S S S S E   S S
e |--3-----------------------------|--------3-----------------------|
B |5---5-------5-------5-------3---|3---------3-------------------0-|
G |----------5-----5-----5-------5-|--------------4-----4-------2---|
D |------5-----------5-------5-----|----5-------5---------5---------|
A |3-------3-----3---------3-------|--5---5-----------5-------------|
E |--------------------------------|3---------------3-------3-------|

   > > >                       > >  >           >               > >
   S S S S S S S S S S S S S S S S  S S S S S S S S S S S S E   S S
e |--0-----------------------------|--------------------------------|
B |1---1-------1---------------0---|0---------------------------1-0-|
G |--------2-----2-----2---------2-|--------0-------0---------------|
D |----------2-------2---2---2-----|----2-------2-----2---2---------|
A |0-----0---------0-------0-------|--2---2-------2-----2-----------|
E |--------------------------------|0---------0-------------0-------|

   >           > > >           > >  >                              
   S S S S S S S S S S S S S S S S  S S S S S S S S H
e |--------------------------------|--------------------------------|
B |------------1-0-------------1-0-|--------------------------------|
G |2---------------2---2-----------|2-------2-----------------------|
D |----3-------------3---3---------|----2-----2---------------------|
A |--3---3---------5-------5-------|0-3---3-----3-2-0---------------|
E |1-------1-----------------------|--------------------------------|

    Part III-E

   S S S S S S S S Q.          S S 
e |--------------0-0-----------1-0-|
B |------1-----1---1---------------|
G |----2-----2-----2---------------|
D |--2-----2-------2---------------|
A |0---------------0---------------|
E |--------------------------------|
                                                                    
   S S S S S S S S Q.        T T T  H               E   E   E   E   
e |--------------------------------|--------------------------------|
B |4-------4-----------------------|3---------------L---3---1-------|
G |4---4-----4---4---------------3-|3---------------L-----------1---|
D |4-4---4-----4---------------3---|3---------------L---------------|
A |2---------------2---------5-----|5---------------L---------------|
E |--------------------------------|--------------------------------|

   S S S S S S S S H                W                               
e |--------------------------------|--------------------------------|
B |--------1-----------------------|--------------------------------|
G |2---2-----2---------------------|--------------------------------|
D |2-2---2-----2-------------------|2-------------------------------|
A |0-------------3-0---------------|0-------------------------------|
E |--------------------------------|--------------------------------|
Login or Register to remove this ad.

4 comments on Opening Theme

Let me be the first to say...

5

This is awesome, I forgot how epic the beginning of the game was until I played this again. The memories...
Thanks for making such a great and lengthy (in a good way!) tab!

. . .

5

And Let Me Be The Second (:

Beautiful arrangement

Beautiful arrangement

Thanks Auri, a little late,

5

Thanks Auri, a little late, but thanks for making this awesome tab! I only just played through it for the first time =)

I'm interested in FF6 more lately cause I'm playing through it again with my wife watching.