Battle (Final Fantasy VI) Bass Tab

Submitted: Mar 27, 2009 by auriplane (Last updated: Jan 15, 2012)

5
Average: 5 (1 vote)
Download | Listen
Game: Final Fantasy VI
Composer(s): Nobuo Uematsu
Style: Transcription
Series: Final Fantasy

AutoScroll: Slow | Medium | Fast
                Final Fantasy VI (SNES) - Battle BASS TAB
                          Song by Nobuo Uematsu

                 Tabbed by auriplane ([email protected])
                             On Mar 27, 2009

Where it says 653, play that as 6p5p3 (which didn't fit in the spacing, 
so I just wrote 653). 

Four-string bass, standard tuning.  

    Intro

G |----------------|----------------|
D |----------------|----------------|
A |0-0-0-0-0-0-----|0-0-0-0-0-0-----|
E |------------3-3-|------------3-3-|

    Part A

G |----------------|----------------|
D |----2-----3---0-|----2-----3-0---| x4
A |0-----0-1-------|0-----0-1-----1-|
E |----------------|----------------|
                                      
G |----------------|----------------|----------------|----------------|
D |----------------|----------------|----------------|----------------|
A |0-0-----1-1-----|0-----------1---|0-0-----1-1-----|0-----------1---|
E |----------------|------3---------|----------------|------3---------|

G |------2-------3-|2---------------|------2-------3-|----------------|
D |----2-------3---|--2-0-------0-3-|----2-------3---|--0-2-----3-1---|
A |0-0-----1-1-----|----------1-----|0-0-----1-1-----|0-----1-------1-|
E |----------------|------3---------|----------------|----------------|

    Part B

G |----------------|----------------|
D |----2-----3---0-|----2-----3-0---| x4
A |0-----0-1-------|0-----0-1-----1-|
E |----------------|----------------|
                                      
G |----------------|----------------|----------------|--------------0-|
D |----------------|----------------|----------------|------------1---|
A |0-0-----0-0-----|0-0-----0-0-----|1-0-3-1-0-------|--------0-1-----|
E |----------------|----------------|----------0---3-|--5-653---------|
                                      
G |----------------|----------------|----------2-----|----------3-----|
D |----------------|----------------|----------------|----------------|
A |0-0-----0-0-----|0-0-----0-0-----|0-----------0-1-|------------1-2-|
E |----------------|----------------|----------------|----------------|
                                      
G |------0---------|------2---------|----------------|----------------|
D |----4---2-------|----2-----------|--2-------------|----------------|
A |3----------0----|0---------1-3-4-|------0---------|0-----0---------|
E |--------------3-|----------------|--------3---4---|------------0---|
                                      
G |----------------|
D |------2-----0---|
A |----2---------2-|
E |L---------4-----|
                                      
    Repeat back to Part A.
Login or Register to remove this ad.