Ahead On Our Way (Final Fantasy V) Bass Tab

Submitted: Sep 28, 2008 by auriplane

0
Download | Listen
Game: Final Fantasy V
Composer(s): Nobuo Uematsu
Style: Transcription
Series: Final Fantasy

AutoScroll: Slow | Medium | Fast
            Final Fantasy V (SNES) - Ahead on our Way BASS TAB
                          Song by Nobuo Uematsu

                 Tabbed by auriplane ([email protected])


Four-string bass, standard tuning.  

G |------------|-----------|------------|------------|
D |-----------   Rest for four measures   -----------|
A |-----------                            -----------|
E |------------|-----------|------------|------------|

Repeat 2x:

G |------------------------|------------------------|
D |------------------10----|------------------------|
A |---------------------10-|------------------------|
E |8--8--------------------|8--8--------------------|

Repeat 2x:

G |------------------------|------------------------|
D |------------------13----|------------------------|
A |---------------------13-|------------------------|
E |11-11-------------------|13-13-------------------|

Repeat 2x:

G |------------------------|------------------------|
D |------------------10----|------------------------|
A |---------------------10-|------------------------|
E |8--8--------------------|8--8--------------------|

No repeat:

G |8-----7-----------------|------------------------|
D |------------10----8-----|7-----------------10----|
A |------------------------|------10----8-----------|
E |------------------------|------------------------|

G |------------------------|------------------------|
D |------------------------|------------------------|
A |10-10-------10-10-------|10-10-------10-10-------|
E |---------10----------10-|---------10----------10-|

G |------------------------|------------------------|
D |------------------13----|------------------------|
A |---------------------13-|------------------------|
E |11-11-------------------|11-11-------------------|

G |------------------10----|------------------------|
D |---------------------10-|------------------------|
A |------------------------|------------------------|
E |11-11-------------------|11-11-------------------|

G |------------------------|------------------------|
D |------------------12----|------------------------|
A |---------------------12-|------------------------|
E |10-10-------------------|10-10-------------------|

G |------------------12----|------------------------|
D |---------------------12-|------------------------|
A |10-10-------------------|10-10-------------------|
E |------------------------|------------13-13-------|

G |------------------------|------------------------|
D |------------------13----|------------------------|
A |---------------------13-|------------------------|
E |11-11-------------------|11-11-------------------|

G |------------------10----|------------------------|
D |---------------------10-|------------------------|
A |------------------------|------------------------|
E |11-11-------------------|11-11-------------------|

G |------------------------|------------------------|
D |------------------12----|------------------------|
A |---------------------12-|------------------------|
E |10-10-------------------|10-10-------------------|

G |------------------12----|------------------------|
D |---------------------12-|------------------------|
A |10-10-------------------|10-10-------8--8--------|
E |------------------------|------------------------|

G |------------------------|------------------------|
D |---------10----------10-|------------------------|
A |------------------------|---------10----------10-|
E |8--8--------8--8--------|8--8-----------8--------|

G |------------------------|------------------------|
D |---------10----------10-|------------------------|
A |------------------------|---------9--------------|
E |8--8--------8--8--------|8--8-----------8-----8--|

G |------------------------|------------------------|
D |8--8--------8--8--------|------------------------|
A |---------8--------------|11-11----8--11-11-------|
E |------------------------|------------------------|

G |------------------------|------------------------|
D |------------------------|------------------------|
A |9-----9-----9-----9-----|8--8--------8--8--------|
E |---9-----9-----9-----9--|------------------------|
Login or Register to remove this ad.