Ads

Victory Fanfare (Final Fantasy IV) Guitar Tab

Submitted: Feb 20, 2009 by Heliographos

4.333335
Average: 4.3 (3 votes)
Download | Listen
Game: Final Fantasy IV
Composer(s): Nobuo Uematsu
Style: Transcription
Series: Final Fantasy

AutoScroll: Slow | Medium | Fast
Victory Fanfare
Final Fantasy IV
Composed by Nobuo Uematsu
Tabbed By Heliographos

|------------------------|------------------------|
|--1-1-1-1-----1---1-----|------------------------|
|----------1-3---3-------|---------3-3-2-3-2------|
|------------------------|-5-3-5-3----------------|
|------------------------|------------------------|
|------------------------|------------------------|
(Play 1st part once)
|------------------------|------------------------|
|------------------------|------------------------|
|------------------------|---------3-3-2-3-2------|
|-3-5-3-2-3-0------------|-5-3-5-3----------------|
|------------------------|------------------------|
|------------------------|------------------------|

|------------------------|
|------------------------|
|------------------------|
|---------3-5------------|
|-3-5-3-5----------------|
|------------------------|
Login or Register to remove this ad.

3 comments on Victory Fanfare

nice, but i think the last

nice, but i think the last part is wrong. i think it's more like:

|------------------------|
|------------------------|
|--------3-5------------|
|--5-3-5----------------|
|------------------------|
|------------------------|

but otherwise it sound pretty accurate

Hm...

I dunno, maybe. I didn't mean for that first "3" to be played strong, kind of a base to hammer to 5 from.

cool

it's very accurate except for the last part