Terra (Final Fantasy VI) Guitar Tab

Submitted: Oct 03, 2007 by archard

4.76923
Average: 4.8 (13 votes)
Download | Listen
Game: Final Fantasy VI
Composer(s): Nobuo Uematsu
Style: Transcription
Series: Final Fantasy

AutoScroll: Slow | Medium | Fast
Terra
Final Fantasy VI
Composed by Nobuo Uematsu

8/22/06

e---------------------------------------------------------
B------1-----1-------1-----1-------1-----1-------1-----1--
G----2-----2---2---2-----2---2---2-----2---2---2-----2---2
D--2-----2-------2-----2-------2-----2-------2-----2------
A---------------------------------------------------------
E---------------------------------------------------------

e--------0---------------------------0---------------0
B----0-1---1-----0---0-----------0-1---1-----0---0----
G--2---------------2-----------2---------------2------
D------------------------2----------------------------
A-----------------------------------------------------
E-----------------------------------------------------

e------0-3-0----------------------------------
B--1-3-----------3-1-3---------1-0-------1-0--
G------------------------0---------2---------2
D---------------------------------------------
A---------------------------------------------
E---------------------------------------------

Repeat from beginning then...

e------0-3-0----------------------0-3-0------------3---
B--1-3----------3-1-3---------1-3----------3-1-3-------
G-----------------------0------------------------------
D------------------------------------------------------
A------------------------------------------------------
E------------------------------------------------------

e--------0------------------------------------
B----0-1---1-----0---0---------1-0-------1-0--
G--2---------------2---------------2---------2
D------------------------2--------------------
A---------------------------------------------
E---------------------------------------------

e--------0------------------------1----------------
B--1---------1--------------3---------3---0--------
G----------------2---------------------------------
D--------------------------------------------------
A--------------------------------------------------
E--------------------------------------------------

e--0-----3---0-----------0------------------------
B----------------1-----3---3--------0---1--------0
G------------------------------2------------------
D-------------------------------------------------
A-------------------------------------------------
E-------------------------------------------------
Login or Register to remove this ad.

4 comments on Terra

It sounds better if you tune

It sounds better if you tune everything down half a step, at least enough to sound like the midi.

Just love this song

Just love this song

Nice

Nice

Very Nice

5

Very Nice