Searching for Friends (Final Fantasy VI) Guitar Tab

Submitted: Oct 03, 2007 by archard

3.4
Average: 3.4 (5 votes)
Download | Listen
Game: Final Fantasy VI
Composer(s): Nobuo Uematsu
Style: Transcription
Series: Final Fantasy

AutoScroll: Slow | Medium | Fast
Searching for Friends
Final Fantasy VI
Composed by Nobuo Uematsu

8/10/06

e----------------------------------------------------------------------
B------1---0--------------------------------------1---3-1-0-----1-0----
G--2---------2-0------------------------------2-------------0-2-----1-2
D-------------------0-2--2-0----0-2---2--------------------------------
A-----------------3-----------3----------------------------------------
E---------------------------------------------------------------------- x2

e----5---3-1-0-1-3--------------------0---0--------------------------
B--6---6------------------------------------3-1-------------4-3-1----
G-----------------------------------------------2-----0-2-3-------3-2
D--------------------------------------------------------------------
A--------------------------------------------------------------------
E--------------------------------------------------------------------
Login or Register to remove this ad.

5 comments on Searching for Friends

I think there's an intro to

I think there's an intro to this song.

e----------------------
B----------------------
G----------------------
D-----------------0---2
A-0-----2---3----------
E----0---------0-------

errr.. A huge portion of the

errr.. A huge portion of the song is missing in the second half.

:( chorus i miss you!!!

:( chorus i miss you!!!

I tried tabbing this my self

I tried tabbing this my self but failed utterly :P

I just wish you'd finish it?

3

I just wish you'd finish it? you have the right idea, keep going with it and I'll add bass notes ^_~