Forever Rachel (Final Fantasy VI) Guitar Tab

Submitted: Oct 03, 2007 by archard

4
Average: 4 (7 votes)
Download | Listen
Game: Final Fantasy VI
Composer(s): Nobuo Uematsu
Style: Transcription
Series: Final Fantasy

AutoScroll: Slow | Medium | Fast
Forever Rachel
Final Fantas VI
Composed by Nobuo Uematsu

8/6/06

e------------------------------------------1---1-0-----0-----
B----------------------1---1-0-----0---------------3-1---3---
G--0---0-----------------------2-0---2-----------------------
D--------4-2-0-4-2-------------------------------------------
A------------------------------------------------------------
E------------------------------------------------------------

e--------------------------
B-----1--3-------------1--3
G--3----------------3------
D--------------------------
A--------------------------
E--------------------------

e--3-----3-5-----10--8--6--5--3--1--------------3---------3---
B------3----------------------------3----3--3-1-------1-------
G-------------------------------------------------------3-----
D-------------------------------------------------------------
A-------------------------------------------------------------
E-------------------------------------------------------------

e--3-5-6-5-0-----0-3-2-5
B-----------------------
G-----------------------
D-----------------------
A-----------------------
E-----------------------

e--3-----3-5-----10--8--6--5--3--1-----------3-6-5---2-----3
B------3----------------------------3----3-1----------------
G-----------------------------------------------------------
D-----------------------------------------------------------
A-----------------------------------------------------------
E-----------------------------------------------------------
Login or Register to remove this ad.

2 comments on Forever Rachel

Perfect! Thanks.

Perfect! Thanks.

Awesome Tab, gonna learn it

Awesome Tab, gonna learn it tonight. Plays very well!