Main Theme (Final Fantasy V) Guitar Tab

Submitted: Oct 03, 2007 by archard

5
Average: 5 (5 votes)
Download | Listen
Game: Final Fantasy V
Composer(s): Nobuo Uematsu
Style: Transcription
Series: Final Fantasy

AutoScroll: Slow | Medium | Fast
Main Theme
Final Fantasy V
Composed by Nobuo Uematsu

8/10/06

e--3-----------5-3--------1-3---8-5---1-3---10-5
B------0-1-3---------4--4-----------------------
G-----------------------------------------------
D-----------------------------------------------
A-----------------------------------------------
E-----------------------------------------------

e--3-----------5-3--------1-3---6---5---1-3
B------0-1-3---------4--4------------------
G------------------------------------------
D------------------------------------------
A------------------------------------------
E------------------------------------------

e--10-------13---11-10-8-10--------8-10-----------8-6--
B-------8-------------------10----------10---8-10-----8
G------------------------------------------------------
D------------------------------------------------------
A------------------------------------------------------
E------------------------------------------------------

e--------10-------13---11-10-8-10--------8-------15-13-11-13-10
B--10-11------8-------------------10---------6-----------------
G--------------------------------------------------------------
D--------------------------------------------------------------
A--------------------------------------------------------------
E--------------------------------------------------------------

e--10---8-6---------10-8-----6---6
B-------------8---7------------7--
G---------------------------------
D---------------------------------
A---------------------------------
E---------------------------------
Login or Register to remove this ad.

3 comments on Main Theme

Very nice job, i'v been

Very nice job, i'v been looking for this one for a while

Coool Thanks Obrigado

Coool Thanks
Obrigado

thanks

5

thanks