Boss Battle Theme (Final Fantasy IV) Bass Tab

Submitted: Oct 03, 2007 by Calebelijah (Last updated: Sep 20, 2009)

5
Average: 5 (2 votes)
Download | Listen
Game: Final Fantasy IV
Composer(s): Nobuo Uematsu
Style: Transcription
Series: Final Fantasy

Click here for a video example.

AutoScroll: Slow | Medium | Fast
Electric Bass
     W                   E  E  E  E  E  E  E  E     E  E  E  E  E  E  E  E
G||-------------------|--0--0--0--0--0--0--------|--0--0--0--0--0--0--------|
D||-------------------|--------------------3--3--|--------------------3--3--|
A||-------------------|--------------------------|--------------------------|
E||-------------------|--------------------------|--------------------------|

    E  E  E  E  E  E  E  E     E  E  E  E  E  E  E  E
|------5--4--5-----5-----5--|-----5--4--5-----5-----5--|
|*--------------------------|--------------------------|
|*--3-----------6-----5-----|--3-----------6-----5-----|
|---------------------------|--------------------------|

  E  E  E  E  E  E  E  E     E  E  E  E  E  E  E  E
-----5--4--5-----5-----5--|-----5--4--5-----5-----5--|
--------------------------|--------------------------|
--3-----------6-----5-----|--3-----------6-----5-----|
--------------------------|--------------------------|

  E  E  E  E  E  E  E  E     E  E  E  E  E  E  E  E
-----5--4--5-----5-----5--|-----5--4--5-----5-----5--|
--------------------------|--------------------------|
--3-----------6-----5-----|--3-----------6-----5-----|
--------------------------|--------------------------|

  E  E  E  E  E  E  E  E     E  E  E  E  E  E  E  E
-----5--4--5-----5-----5--|-----5--4--5-----5-----5--|
--------------------------|--------------------------|
--3-----------6-----5-----|--3-----------6-----5-----|
--------------------------|--------------------------|

  E  E  E  E  E  E  E  E     E  E  E  E  E  E  E  E
-----5--4--5-----5-----5--|-----5--4--5-----5-----5--|
--------------------------|--------------------------|
--3-----------6-----5-----|--3-----------6-----5-----|
--------------------------|--------------------------|

  E  E  E  E  E  E  E  E     E  E  E  E  E  E  E  E
-----5--4--5-----5-----5--|-----5--4--5-----5-----5--|
--------------------------|--------------------------|
--3-----------6-----5-----|--3-----------6-----5-----|
--------------------------|--------------------------|

  E  E  E  E  E  E  E  E     E  E  E  E  E  E  E  E
-----5--4--5-----5-----5--|-----5--4--5-----5-----5--|
--------------------------|--------------------------|
--3-----------6-----5-----|--3-----------6-----5-----|
--------------------------|--------------------------|

  E  E  E  E  E  E  E  E     E  E  E  E  E  E  E  E
-----5--4--5-----5-----5--|-----5--4--5-----5-----5--|
--------------------------|--------------------------|
--3-----------6-----5-----|--3-----------6-----5-----|
--------------------------|--------------------------|

  E  E  E  E  E  E  E  E     E  E  E  E  E  E  E  E
-----5--4--5-----5-----5--|-----5--4--5-----5-----5--|
--------------------------|--------------------------|
--3-----------6-----5-----|--3-----------6-----5-----|
--------------------------|--------------------------|

  E  E  E  E  E  E  E  E     E  E  E  E  E  E  E  E
-----5--4--5-----5-----5--|-----5--4--5-----5-----5--|
--------------------------|--------------------------|
--3-----------6-----5-----|--3-----------6-----5-----|
--------------------------|--------------------------|

  E  E  E  E  E  E  E  E     E  E  E  E  E  E  E  E
-----5--4--5-----5-----5--|-----5--4--5-----5-----5--|
--------------------------|--------------------------|
--3-----------6-----5-----|--3-----------6-----5-----|
--------------------------|--------------------------|

  E  E  E  E  E  E  E  E     E  E  E  E  E  E  E  E
-----5--4--5-----5-----5--|-----5--4--5-----5-----5--|
--------------------------|--------------------------|
--3-----------6-----5-----|--3-----------6-----5-----|
--------------------------|--------------------------|

  S. T S Q    S S. T S Q    S    S. T S Q    S S. T S Q    S
------------------------------|------------------------------|
------------------------------|------------------------------|
--4----4--------4----4--------|--4----4--------4----4--------|
------------------------------|------------------------------|

  Q.      Q     E  E   E     Q.      Q     E  E   E
---------------11---------|---------------11---------|
---------11--------8--10--|---------11--------8--10--|
--9-----------------------|--9-----------------------|
--------------------------|--------------------------|

  Q.      Q     E  E   E     Q.      Q     E  E   E
---------------10---------|---------------10---------|
---------10--------8--10--|---------10--------8--10--|
--8-----------------------|--8-----------------------|
--------------------------|--------------------------|

  Q.      Q     E  E   E     Q.      Q     E  E   E
---------------10---------|---------------10---------|
---------10--------8--10--|---------10--------8--10--|
--8-----------------------|--8-----------------------|
--------------------------|--------------------------|

  E   S S E   S S E   S S E   S S    E   S S E   S S E   S S E   S S
-----11------11------11------11---|-----11------11------11------10---|
----------------------------------|----------------------------------|
--9-------9-------9-------9-------|--9-------9-------9-------8-------|
----------------------------------|----------------------------------|

  E  S S E  S S E  S S E  S S    E  S S E  S S E  S S E  S S
-----8------8------8------8---|-----8------8------8------8---|
------------------------------|------------------------------|
--6------6------6------6------|--6------6------6------6------|
------------------------------|------------------------------|

  E  S S E  S S E  S S E  S S    E  S S E  S S E  S S E  S S
-----7------7------7------7---|-----7------7------7------9---|
------------------------------|------------------------------|
--5------5------5------5------|--5------5------5------7------|
------------------------------|------------------------------|

  E   S S E   S S E   S S E   S S    E   S S E   S S E   S S  E   S S
-----10------10------10------10---|-----10------10------10-------12---|
----------------------------------|-----------------------------------|
--8-------8-------8-------8-------|--8-------8-------8-------10-------|
----------------------------------|-----------------------------------|

   E   S S  E   S S  E   S S  E   S S     E   S S  E   S S  E   S S  E   S S
------13-------13-------13-------13---|------13-------13-------13-------13---|
--------------------------------------|--------------------------------------|
--11-------11-------11-------11-------|--11-------11-------11-------11-------|
--------------------------------------|--------------------------------------|

   Q     E   Q     E   E   E      E   E   E   Q     E   Q
------------12----13--12------|--------------12----13--12------||
--------12----------------12--|------10--12------------------*-||
--10--------------------------|--10--------------------------*-||
------------------------------|--------------------------------||

Duration Legend
---------------
W - whole
H - half
Q - quarter
E - 8th
S - 16th
T - 32nd
X - 64th
. - note dotted
|-n-|  - n-tuplets

Tablature Legend
----------------
L - tied note
Login or Register to remove this ad.

2 comments on Boss Battle Theme

is this the same theme known

is this the same theme known as Clasch on the Big Bridge?
or is that something else?

Awesome

5

This is one of my favorite FFIzzzzzzv themes nice tab by the way!