Ads

Because I Love You (Earthbound) Guitar Tab

Submitted: Jun 10, 2008 by MGO RLY (Last updated: Nov 27, 2009)

5
Average: 5 (8 votes)
Download | Listen
Game: Earthbound
Composer(s): Hirokazu Tanaka, Keiichi Suzuki
Style: Fingerstyle, Transcription

AutoScroll: Slow | Medium | Fast
"Because I Love You" from Earthbound
Transcribed by Mike Erickson
No Capo. Standard Tuning



INTRO: G Am D C(on G)


    G                    A              D                  C(on G) 
e|------------------------------------------------------------------------------|
B|--3---------------------------0-1-----3------------------3--------------------|
G|--0-------0------------2------2-------2-------2----------0------0-------------|
D|--0---0--------0----------2---2-------0----0-----0-------2---2-----2----------|
A|--2--------------------0---------------------------------3--------------------|
E|--3---------------------------------------------------------------------------|
   
 
    G                   Am               D
e|----------------------0-------2-------------------------2---------------------|
B|--------0-----------------1---1-------3-----------------3--------3---------0--|
G|--0--0------0-------------2---2-------2------2----------2-----2--2----2-------|
D|--------0-------------2-------2-------0---0-----0-------0--------0------------|
A|-----2----------------0-------0-----------------------------------------------|
E|--3---------------------------------------------------------------------------|


   Am             D               G              Em
e|-------------------------------------------------------------------|
B|--1-0-----------3------0--1-----3--1--0--3-----------------0-------|
G|--2----2--0-----2------2--2--------0--0--0-----0-------2-----------|
D|--2----2--2-----0--0---0--------------0--0--------2----------------|
A|--0--------------------------------2-----2--------2----2-----------|
E|--------------------------------3--------------0-------------------|


   Am             D                     G 
e|-------------------------------------------------------------||
B|--1--0----------3------------------------------0---3---------||
G|--2----2---0----2-------0----2--------2----0---0---0--0------||
D|--2--------2----4---4-----------------0--------0---0--0------||
A|--0-------------0-------------------------------------2------||
E|--------------------------------------3--------3------3------||

     D      C#        Bm                      D             C#             Bm
e|----------------0-------------------------------------------------------------------|
B|--3--0-3--2--3------3--0-------3------------3------0-3----5-5--3---2-----0----------|
G|--2-------2---------4------------4----------2---2---------2--------------4----------|
D|--0-------2---------4--------------4--------0-------------2--------------4----------|
A|----------4---------2-------2--------2--------------------4----4---------2----------|
E|------------------------------------------------------------------------------------|
 

     D            A               D
e|---2------------0-----2--3------2----------------------------|
B|---3-----3------2-----2--2------3---3-----3----3-------------|
G|---2-----2------2-----2--2------2---2-----2----2-------------|
D|------0---------2-----------------0----0-----0----0----------|
A|-------------------0-----------------------------------------|
E|-------------------------------------------------------------|

    D            
e|--2------------0---0---2--3----5-------------------5----------|
B|--3------3-----3---3---3--3----5------8---8--------7----------|
G|--2------2-----0---0---0-------6------6---6--------6----------|
D|--0--0---0---------------------7------7---7--------5----------|
A|---------------2---------------7-------------------7----------|
E|---------------0-------0-------5--5-----5-----5----5----------|

Outro: 
   G
e|-3-------------------------------------------------------------------------------------------|
B|-3-----3------3-----4-----4----5----5---5---4----4------------------4---4----5---5---4---4---|
G|-0-----0------0-----0-----0----0----0---0---0----0-----0-2-2-0-0----0---0----0---0---0---0---|
D|-0-----0------0-----0-----0----0----0---0---0----0--4------0---0----0---0----0---0---0---0---|
A|-2--------------------------------2------------2---------------------------------------------|
E|-3---3----3------3-----3-----3--------3---3---------3------3-----3----3----3---3---3---3---3-|

End on G
Login or Register to remove this ad.

3 comments on Because I Love You

nice tab!

5

That middle part sounds really nice, and also the whole song :P thank you

Love the song, Love the Tab,

5

Love the song, Love the Tab, Love the Game , Love you.

isn't this fourside?

5

Like could you take the chord progression that is here and use it in the Fourside theme?
Also fantastic job man!!!