Wind Scene (Chrono Trigger) Guitar Tab

Submitted: Jan 06, 2008 by (Last updated: Sep 26, 2009)

4.555555
Average: 4.6 (9 votes)
Download | Listen
Game: Chrono Trigger
Composer(s): Nobuo Uematsu, Yasunori Mitsuda, Noriko Matsueda
Style: Arrangement, Fingerstyle
Series: Chrono

This song is also called 600 A.D.

AutoScroll: Slow | Medium | Fast
YASUNORI MITSUDA – WIND SCENE
CALEBELJIAH - DUAL GUITAR ARRANGEMENT
ENTERIM - SOLO GUITAR ARRANGEMENT

     H        Q    Q         E  E  E  E  E  E  E  E     E  E  E  E  Q    Q     
e||----------------0----||---1--0--------------------|------------------------|
B||-----------3---------||---------1-----3-----1--3--|--1---------------------|
G||---------------------||*-----------2--------------|-----2-----0--2----0----|
D||---------------------||*--0--L--L--L-----3--------|--------3-----3----2----|
A||---------------------||---------------1--L--------|--0--L--L--L------------|
E||---------------------||---------------------------|------------------------|

                                                         
     E  E  E  E  Q    Q       Q    E  E  Q   Q       E  E  E  E  E  E  E  E   
e||--------0-----0----1----|----------1--0---0----|--1--0--------------------|
B||-----------1--1---------|--1----3-----1--------|--------1-----3-----1--3--|
G||--------2-----0---------|--0-------------------|-----------2--------------|
D||--2--3------------------|----------------------|--0--L--L--L-----3--------|
A||------------------------|----------------------|--------------1--L--------|
E||------------------------|----------------------|--------------------------|

                               
     E  E  E  E  Q    Q       E  E  E  E  E  E  E  E     E  E  E  E  Q    Q       
e||------------------------|--------------0-----------|--------0--3--2----0----||
B||--1---------------------|-----------1--1--3--1--3--|--3-----------3---------||
G||-----2-----0--2----0----|--------2-----0-----2-----|--2--2----------------*-||
D||--------3-----3----2----|--2--3--------------------|----------------------*-||
A||--0--L--L--L------------|--------------------------|------------------------||
E||------------------------|--------------------------|------------------------||


     E  E  E  E  Q.     E     E  E  E  E  Q    Q       E  E  E  E  Q    Q     
e||--1--0------------------|------------------------|--------------0----1----|
B||--------1-----3------3--|--1----------------2----|--1--------1------------|
G||-----------2------------|--0--2-----0--2----2----|--2-----2---------------|
D||--0--------L--3---------|--2-----3-----3----2----|--0--3-------------3----|
A||--------------1------L--|--0--L--L--L------------|------------------------|
E||------------------------|------------------------|------------------------|


     H        Q    Q       E  E  E  E  Q.     E     E  E  E  E  Q    Q     
e||----------------0----|--1--0------------------|------------------------|
B||--1------------------|--------1-----3------3--|--1----------------2----|
G||---------------------|-----------2------------|--0--2-----0--2----2----|
D||--3--------2---------|--0--------L--3---------|--2-----3-----3----2----|
A||---------------------|--------------1------L--|--0--L--L--L------------|
E||---------------------|------------------------|------------------------|

                                         
     E  E  E  E  E  E  E  E     H        H      E     E  E  E  E  Q    Q     
e||--------------0-----------|------------------5--|--5--L--L--L--3----1----|
B||--1--------1-----3--1--3--|--3------------------|--6--L--L--L--5----3----|
G||--2-----2-----------------|--0------------------|-----3-----3------------|
D||--0--3--------------------|--0--------4---------|------------------------|
A||--------------------0--L--|-----------5---------|------------------------|
E||--------------------------|---------------------|------------------------|


     E  E  E  E  Q    Q       E  E  E  E  E  E  Q       E  E  E  E  E  E  E  E 
e||--0--L--L--L--1----3----|--0--L--L--L--L--L-------|--------------------------|
B||--1--L--L--L--3----5----|--1--L--L--L--L--L--1----|-----3-----3-----3--1--3--|
G||-----3-----3------------|-----2-----2--2--2--2----|--2-----------------2-----|
D||------------------------|-------------------------|--3-----2-----3-----------|
A||------------------------|-------------------------|--------------------------|
E||------------------------|-------------------------|--------------------------|


     E  E  E  E  Q    Q       E  E  E  E  Q    Q       E  E  E  E  E  E  E  E   
e||------------------------|--0--L--L--L--1----3----|--0-----------------------|
B||--------------1----3----|--1--1-----1--3----5----|--1-----------------------|
G||--3--L--L--L--2----3----|------------------------|--------2-----0-----2-----|
D||--5--5-----5------------|------------------------|-----3-----3-----3-----3--|
A||------------------------|------------------------|--------------------------|
E||------------------------|------------------------|--------------------------|


     E  E  E  E  E  E  E  E     E  E  E  E  Q    Q       E  E  E  E  Q    Q     
e||--------------------------|--5--L--L--L--3----1----|--0--L--L--L--1----3----|
B||--1--------------------1--|--6--L--L--L--5----3----|--1--1--L--1--3----5----|
G||--------------0--2--3-----|-----3-----3------------|-----3-----3------------|
D||-----3--3--3--------------|------------------------|------------------------|
A||--------------------------|------------------------|------------------------|
E||--------------------------|------------------------|------------------------|


     E  E  E  E  Q    Q       Q    E  E  E  E  Q       E  E  E  E  E  E  E  E   
e||--5--L--L--L--3----1----|--0----------------1----|--5--L--------------1-----|
B||--6--L--L--L--5----3----|--3----3--3--3----------|-----3-----3--3--3-----3--|
G||-----4-----4------------|--2-------4--4----------|--2--L--------0--0-----0--|
D||------------------------|------------------------|--------------------------|
A||------------------------|------------------------|--------------------------|
E||------------------------|------------------------|--------------------------|


     E  E  E  E  E  E  E  E     E  E  E  E  E  E  E  E     H        Q    Q     
e||--0-----------------------|--0--L--L--L--L--L--L--L--|--0-------------0----||
B||--0--0--3--3--3--3--3--3--|--3--3-----3--3--3-----3--|--2--------3---------||
G||--1--1-----1--1--1-----1--|--2--2-----2--2--2-----2--|--2------------------||
D||--------------------------|--------------------------|--2------------------||
A||--------------------------|--------------------------|--0------------------||
E||--------------------------|--------------------------|---------------------||
Login or Register to remove this ad.

7 comments on Wind Scene

what does L mean?

what does L mean?

tied, or "l"ong. Btw, this

tied, or "l"ong.

Btw, this is EXTREMELY creepy... I made the same composition for this song, almost a month ago :S

Long? is that a vertical

Long? is that a vertical reference as in has to do with the strings the "l" is on, or is it a horizontal reference as in no pause between that note/chord and the next one?

I suppose it's similar to a

I suppose it's similar to a tie. It's complicated writing this out, having to demonstrate holding one note and playing others. D=

Oyez, I wasn't consistent,

Oyez, I wasn't consistent, THAT's why this is so confusing. The beginning has the same L's from CalebElijah's, I do mine differently, putting an L for every beat it's held. CalebElijah saves space and only puts an L on the last beat you should hold it for.

awsome!!!

awsome!!!

Update, now it's not as

Update, now it's not as horrid.