Silent Light (Chrono Trigger) Bass Tab

Submitted: Dec 30, 2008 by auriplane (Last updated: Mar 14, 2011)

0
Download | Listen
Game: Chrono Trigger
Composer(s): Nobuo Uematsu, Yasunori Mitsuda, Noriko Matsueda
Style: Transcription
Series: Chrono

AutoScroll: Slow | Medium | Fast
                                   Chrono Trigger - Silent Light BASS TAB
                                           Song by Nobuo Uematsu
       
                                   Tabbed by auriplane ([email protected])
     


Four-string bass, standard tuning.  Rest for two measures at the beginning.


        Intro

G |2-----------|--------2---|
D |------------|------4-----|
A |------------|3-----------|
E |------------|----------2-|

        Part A

G |--------3---|------------|------------|------------|--------3---|------------|------------|----5--\3---|
D |------------|2-----------|------------|212---------|------------|2-----------|------------|------------|
A |------5---5-|------------|------------|------------|------5---5-|------5-1---|----------6-|------------|
E |3-----------|------------|3-3---------|------------|3-----------|----------3-|4-4---------|4-----------|


G |--------3---|------------|------------|------------|--------5-\3|------------|------------|------------|
D |------------|2-----------|------------|212---------|------------|6-----------|------------|------------|
A |------5---5-|------------|------------|------------|------6-----|------------|------------|------------|
E |3-----------|------------|3-3---------|------------|4-----------|------------|4-4---------|4-4---------|

        Part B

G |--------4---|------------|------------|------------|--------3---|------------|------------|------------|
D |------------|2-----------|------------|------------|------------|2-----------|------------|------------|
A |------5---5-|------------|------------|------------|------5---5-|------------|------------|------------|
E |3-----------|------------|3-3---------|3-3---------|3-----------|------------|3-3---------|3-3---------|


G |------------|------------|------------|------------|------------|------------|------------|------------|
D |------------|5-----------|------------|------------|------------|------------|3-----------|------------|
A |3-----------|------------|3-----------|------------|------------|3-----------|------------|------------|
E |------------|--------3---|------------|------------|1-----------|------------|------------|----1---3---|


G |------------|5-----------|------------|------------|------------|------------|------------|------------|
D |--------1---|------------|------------|6-----------|------------|------------|------------|----4-------|
A |------------|------------|4-----------|--------2---|3-----------|------------|------------|------------|
E |4-----------|------------|------------|------------|------------|------------|------------|--------2---|

        Repeat back to Part A.


Login or Register to remove this ad.