Sealed Chest (Chrono Trigger) Guitar Tab

Submitted: Dec 08, 2007 by Stamen47 (Last updated: Sep 26, 2009)

3.333335
Average: 3.3 (3 votes)
Download | Listen
Game: Chrono Trigger
Composer(s): Nobuo Uematsu, Yasunori Mitsuda, Noriko Matsueda
Style: Transcription
Series: Chrono

This song is also called Mystery of the Past

AutoScroll: Slow | Medium | Fast
                     Sealed Chest - "Mystery of the Past"                       

           rall...
                                  |---3---|                     
     E  E  E  S S E  S S E  E     E   E   E   E   E   H         
E||--2--1----------------------|------------------0------------|
B||--4-----2--1----------------|-------------------------------|
G||--------3------3--2---------|-------------------------------|
D||---------------4------4--3--|--0----------10----------------|
A||----------------------6-----|---------11--------------------|
E||----------------------------|-----13------------------------|


   W                  
---L----------------||
--------------------||
--------------------||
---L----------------||
---L----------------||
---L----------------||




Duration Legend
---------------
W - whole
H - half
Q - quarter
E - 8th
S - 16th
T - 32nd
X - 64th
. - note dotted
|-n-|  - n-tuplets


Tablature Legend
----------------
L - tied note
x - dead note
g - grace note
(n) - ghost note
> - accentuded note
NH - natural harmonic
AH - artificial harmonic
TH - tapped harmonic
SH - semi harmonic
PH - pitch harmonic
h - hammer on
p - pull off
Login or Register to remove this ad.